  0
SECTION
  2
HEADER
  9
$ACADVER
  1
AC1015
  9
$ACADMAINTVER
 70
     6
  9
$DWGCODEPAGE
  3
ANSI_1250
  9
$INSBASE
 10
0.0
 20
0.0
 30
0.0
  9
$EXTMIN
 10
0.0
 20
0.0
 30
0.0
  9
$EXTMAX
 10
20000.0
 20
10000.0
 30
0.0
  9
$LIMMIN
 10
0.0
 20
0.0
  9
$LIMMAX
 10
20000.0
 20
10000.0
  9
$ORTHOMODE
 70
     0
  9
$REGENMODE
 70
     1
  9
$FILLMODE
 70
     1
  9
$QTEXTMODE
 70
     0
  9
$MIRRTEXT
 70
     1
  9
$LTSCALE
 40
1.0
  9
$ATTMODE
 70
     1
  9
$TEXTSIZE
 40
2.0
  9
$TRACEWID
 40
1.0
  9
$TEXTSTYLE
  7
Standard
  9
$CLAYER
  8
0
  9
$CELTYPE
  6
ByLayer
  9
$CECOLOR
 62
   256
  9
$CELTSCALE
 40
1.0
  9
$DISPSILH
 70
     0
  9
$DIMSCALE
 40
1.0
  9
$DIMASZ
 40
2.0
  9
$DIMEXO
 40
1.0
  9
$DIMDLI
 40
3.75
  9
$DIMRND
 40
0.0
  9
$DIMDLE
 40
0.0
  9
$DIMEXE
 40
1.0
  9
$DIMTP
 40
0.0
  9
$DIMTM
 40
0.0
  9
$DIMTXT
 40
2.0
  9
$DIMCEN
 40
2.5
  9
$DIMTSZ
 40
0.0
  9
$DIMTOL
 70
     0
  9
$DIMLIM
 70
     0
  9
$DIMTIH
 70
     1
  9
$DIMTOH
 70
     1
  9
$DIMSE1
 70
     0
  9
$DIMSE2
 70
     0
  9
$DIMTAD
 70
     1
  9
$DIMZIN
 70
     0
  9
$DIMBLK
  1

  9
$DIMASO
 70
     1
  9
$DIMSHO
 70
     1
  9
$DIMPOST
  1

  9
$DIMAPOST
  1

  9
$DIMALT
 70
     0
  9
$DIMALTD
 70
     3
  9
$DIMALTF
 40
0.0393700787
  9
$DIMLFAC
 40
1.0
  9
$DIMTOFL
 70
     1
  9
$DIMTVP
 40
0.0
  9
$DIMTIX
 70
     0
  9
$DIMSOXD
 70
     0
  9
$DIMSAH
 70
     0
  9
$DIMBLK1
  1

  9
$DIMBLK2
  1

  9
$DIMSTYLE
  2
ISO-25
  9
$DIMCLRD
 70
     0
  9
$DIMCLRE
 70
     0
  9
$DIMCLRT
 70
     0
  9
$DIMTFAC
 40
1.0
  9
$DIMGAP
 40
1.524
  9
$DIMJUST
 70
     0
  9
$DIMSD1
 70
     0
  9
$DIMSD2
 70
     0
  9
$DIMTOLJ
 70
     0
  9
$DIMTZIN
 70
     0
  9
$DIMALTZ
 70
     0
  9
$DIMALTTZ
 70
     0
  9
$DIMUPT
 70
     0
  9
$DIMDEC
 70
     2
  9
$DIMTDEC
 70
     0
  9
$DIMALTU
 70
     2
  9
$DIMALTTD
 70
     3
  9
$DIMTXSTY
  7
Standard
  9
$DIMAUNIT
 70
     0
  9
$DIMADEC
 70
     2
  9
$DIMALTRND
 40
0.0
  9
$DIMAZIN
 70
     0
  9
$DIMDSEP
 70
    44
  9
$DIMATFIT
 70
     3
  9
$DIMFRAC
 70
     0
  9
$DIMLDRBLK
  1

  9
$DIMLUNIT
 70
     2
  9
$DIMLWD
 70
    -2
  9
$DIMLWE
 70
    -2
  9
$DIMTMOVE
 70
     0
  9
$LUNITS
 70
     2
  9
$LUPREC
 70
     3
  9
$SKETCHINC
 40
1.0
  9
$FILLETRAD
 40
10.0
  9
$AUNITS
 70
     0
  9
$AUPREC
 70
     2
  9
$MENU
  1
.
  9
$ELEVATION
 40
0.0
  9
$PELEVATION
 40
0.0
  9
$THICKNESS
 40
0.0
  9
$LIMCHECK
 70
     0
  9
$CHAMFERA
 40
0.0
  9
$CHAMFERB
 40
0.0
  9
$CHAMFERC
 40
0.0
  9
$CHAMFERD
 40
0.0
  9
$SKPOLY
 70
     0
  9
$TDCREATE
 40
2460339.314296864
  9
$TDUCREATE
 40
2460339.272630197
  9
$TDUPDATE
 40
2460339.31429765
  9
$TDUUPDATE
 40
2460339.272630984
  9
$TDINDWG
 40
0.0000000116
  9
$TDUSRTIMER
 40
0.0000000116
  9
$USRTIMER
 70
     1
  9
$ANGBASE
 50
0.0
  9
$ANGDIR
 70
     0
  9
$PDMODE
 70
     0
  9
$PDSIZE
 40
-1.0
  9
$PLINEWID
 40
0.0
  9
$SPLFRAME
 70
     0
  9
$SPLINETYPE
 70
     6
  9
$SPLINESEGS
 70
     8
  9
$HANDSEED
  5
310
  9
$SURFTAB1
 70
     6
  9
$SURFTAB2
 70
     6
  9
$SURFTYPE
 70
     6
  9
$SURFU
 70
     6
  9
$SURFV
 70
     6
  9
$UCSBASE
  2

  9
$UCSNAME
  2

  9
$UCSORG
 10
0.0
 20
0.0
 30
0.0
  9
$UCSXDIR
 10
1.0
 20
0.0
 30
0.0
  9
$UCSYDIR
 10
0.0
 20
1.0
 30
0.0
  9
$UCSORTHOREF
  2

  9
$UCSORTHOVIEW
 70
     0
  9
$UCSORGTOP
 10
0.0
 20
0.0
 30
0.0
  9
$UCSORGBOTTOM
 10
0.0
 20
0.0
 30
0.0
  9
$UCSORGLEFT
 10
0.0
 20
0.0
 30
0.0
  9
$UCSORGRIGHT
 10
0.0
 20
0.0
 30
0.0
  9
$UCSORGFRONT
 10
0.0
 20
0.0
 30
0.0
  9
$UCSORGBACK
 10
0.0
 20
0.0
 30
0.0
  9
$PUCSBASE
  2

  9
$PUCSNAME
  2

  9
$PUCSORG
 10
0.0
 20
0.0
 30
0.0
  9
$PUCSXDIR
 10
1.0
 20
0.0
 30
0.0
  9
$PUCSYDIR
 10
0.0
 20
1.0
 30
0.0
  9
$PUCSORTHOREF
  2

  9
$PUCSORTHOVIEW
 70
     0
  9
$PUCSORGTOP
 10
0.0
 20
0.0
 30
0.0
  9
$PUCSORGBOTTOM
 10
0.0
 20
0.0
 30
0.0
  9
$PUCSORGLEFT
 10
0.0
 20
0.0
 30
0.0
  9
$PUCSORGRIGHT
 10
0.0
 20
0.0
 30
0.0
  9
$PUCSORGFRONT
 10
0.0
 20
0.0
 30
0.0
  9
$PUCSORGBACK
 10
0.0
 20
0.0
 30
0.0
  9
$USERI1
 70
     0
  9
$USERI2
 70
     0
  9
$USERI3
 70
     0
  9
$USERI4
 70
     0
  9
$USERI5
 70
     0
  9
$USERR1
 40
0.0
  9
$USERR2
 40
0.0
  9
$USERR3
 40
0.0
  9
$USERR4
 40
0.0
  9
$USERR5
 40
0.0
  9
$WORLDVIEW
 70
     1
  9
$SHADEDGE
 70
     3
  9
$SHADEDIF
 70
    70
  9
$TILEMODE
 70
     1
  9
$MAXACTVP
 70
    64
  9
$PINSBASE
 10
0.0
 20
0.0
 30
0.0
  9
$PLIMCHECK
 70
     0
  9
$PEXTMIN
 10
1.0000000000E+20
 20
1.0000000000E+20
 30
1.0000000000E+20
  9
$PEXTMAX
 10
-1.0000000000E+20
 20
-1.0000000000E+20
 30
-1.0000000000E+20
  9
$PLIMMIN
 10
0.0
 20
0.0
  9
$PLIMMAX
 10
420.0
 20
297.0
  9
$UNITMODE
 70
     0
  9
$VISRETAIN
 70
     1
  9
$PLINEGEN
 70
     0
  9
$PSLTSCALE
 70
     1
  9
$TREEDEPTH
 70
  3020
  9
$CMLSTYLE
  2
Standard
  9
$CMLJUST
 70
     0
  9
$CMLSCALE
 40
20.0
  9
$PROXYGRAPHICS
 70
     1
  9
$MEASUREMENT
 70
     1
  9
$CELWEIGHT
370
    -1
  9
$ENDCAPS
280
     0
  9
$JOINSTYLE
280
     0
  9
$LWDISPLAY
290
     1
  9
$INSUNITS
 70
     4
  9
$HYPERLINKBASE
  1

  9
$STYLESHEET
  1

  9
$XEDIT
290
     1
  9
$CEPSNTYPE
380
     0
  9
$PSTYLEMODE
290
     1
  9
$FINGERPRINTGUID
  2
{3dc58c67-0f0f-4502-9af1-b86c0475fa25}
  9
$VERSIONGUID
  2
{FAEB1C32-E019-11D5-929B-00C0DF256EC4}
  9
$EXTNAMES
290
     1
  9
$PSVPSCALE
 40
0.0
  9
$OLESTARTUP
290
     0
  0
ENDSEC
  0
SECTION
  2
CLASSES
  0
CLASS
  1
ACDBDICTIONARYWDFLT
  2
AcDbDictionaryWithDefault
  3
ObjectDBX Classes
 90
        0
280
     0
281
     0
  0
CLASS
  1
VISUALSTYLE
  2
AcDbVisualStyle
  3
ObjectDBX Classes
 90
     4095
280
     0
281
     0
  0
CLASS
  1
MATERIAL
  2
AcDbMaterial
  3
ObjectDBX Classes
 90
     1153
280
     0
281
     0
  0
CLASS
  1
SCALE
  2
AcDbScale
  3
ObjectDBX Classes
 90
     1153
280
     0
281
     0
  0
CLASS
  1
TABLESTYLE
  2
AcDbTableStyle
  3
ObjectDBX Classes
 90
     4095
280
     0
281
     0
  0
CLASS
  1
MLEADERSTYLE
  2
AcDbMLeaderStyle
  3
ACDB_MLEADERSTYLE_CLASS
 90
     4095
280
     0
281
     0
  0
CLASS
  1
SUN
  2
AcDbSun
  3
SCENEOE
 90
     1153
280
     0
281
     0
  0
CLASS
  1
ACDBPLACEHOLDER
  2
AcDbPlaceHolder
  3
ObjectDBX Classes
 90
        0
280
     0
281
     0
  0
CLASS
  1
LAYOUT
  2
AcDbLayout
  3
ObjectDBX Classes
 90
        0
280
     0
281
     0
  0
ENDSEC
  0
SECTION
  2
TABLES
  0
TABLE
  2
VPORT
  5
8
330
0
100
AcDbSymbolTable
 70
     1
  0
VPORT
  5
29
330
8
100
AcDbSymbolTableRecord
100
AcDbViewportTableRecord
  2
*Active
 70
     0
 10
0.0
 20
0.0
 11
1.0
 21
1.0
 12
10000.0
 22
5000.0
 13
0.0
 23
0.0
 14
10.0
 24
10.0
 15
10.0
 25
10.0
 16
0.0
 26
0.0
 36
1.0
 17
0.0
 27
0.0
 37
0.0
 40
10000.0
 41
2.0
 42
50.0
 43
0.0
 44
0.0
 50
0.0
 51
0.0
 71
     0
 72
  2000
 73
     1
 74
     3
 75
     0
 76
     0
 77
     0
 78
     0
281
     0
 65
     1
110
0.0
120
0.0
130
0.0
111
1.0
121
0.0
131
0.0
112
0.0
122
1.0
132
0.0
 79
     0
146
0.0
  0
ENDTAB
  0
TABLE
  2
LTYPE
  5
5
330
0
100
AcDbSymbolTable
 70
     6
  0
LTYPE
  5
14
330
5
100
AcDbSymbolTableRecord
100
AcDbLinetypeTableRecord
  2
ByBlock
 70
     0
  3

 72
    65
 73
     0
 40
0.0
  0
LTYPE
  5
15
330
5
100
AcDbSymbolTableRecord
100
AcDbLinetypeTableRecord
  2
ByLayer
 70
     0
  3

 72
    65
 73
     0
 40
0.0
  0
LTYPE
  5
16
330
5
100
AcDbSymbolTableRecord
100
AcDbLinetypeTableRecord
  2
Continuous
 70
     0
  3
Solid line
 72
    65
 73
     0
 40
0.0
  0
LTYPE
  5
6E
330
5
100
AcDbSymbolTableRecord
100
AcDbLinetypeTableRecord
  2
HIDDEN
 70
     0
  3
Hidden __ __ __ __ __ __ __ __ __ __ __ __ __ __
 72
    65
 73
     2
 40
1.905
 49
1.27
 74
     0
 49
-0.635
 74
     0
  0
LTYPE
  5
6F
330
5
100
AcDbSymbolTableRecord
100
AcDbLinetypeTableRecord
  2
PHANTOM
 70
     0
  3
Phantom ______  __  __  ______  __  __  ______
 72
    65
 73
     6
 40
12.7
 49
6.35
 74
     0
 49
-1.27
 74
     0
 49
1.27
 74
     0
 49
-1.27
 74
     0
 49
1.27
 74
     0
 49
-1.27
 74
     0
  0
LTYPE
  5
70
330
5
100
AcDbSymbolTableRecord
100
AcDbLinetypeTableRecord
  2
CENTER
 70
     0
  3
Center ____ _ ____ _ ____ _ ____ _ ____ _ ____
 72
    65
 73
     4
 40
10.16
 49
6.35
 74
     0
 49
-1.27
 74
     0
 49
1.27
 74
     0
 49
-1.27
 74
     0
  0
LTYPE
  5
71
330
5
100
AcDbSymbolTableRecord
100
AcDbLinetypeTableRecord
  2
CENTERX2
 70
     0
  3
Center (2x) ________  __  ________  __  _____
 72
    65
 73
     4
 40
20.32
 49
12.7
 74
     0
 49
-2.54
 74
     0
 49
2.54
 74
     0
 49
-2.54
 74
     0
  0
LTYPE
  5
72
330
5
100
AcDbSymbolTableRecord
100
AcDbLinetypeTableRecord
  2
DOT2
 70
     0
  3
Dot (.5x) ........................................
 72
    65
 73
     2
 40
0.635
 49
0.0
 74
     0
 49
-0.635
 74
     0
  0
ENDTAB
  0
TABLE
  2
LAYER
  5
2
330
0
100
AcDbSymbolTable
 70
    13
  0
LAYER
  5
10
330
2
100
AcDbSymbolTableRecord
100
AcDbLayerTableRecord
  2
0
 70
     0
 62
     7
  6
Continuous
370
    -3
390
F
  0
LAYER
  5
73
330
2
100
AcDbSymbolTableRecord
100
AcDbLayerTableRecord
  2
FORMAT
 70
     0
 62
     7
  6
Continuous
370
    -3
390
F
  0
LAYER
  5
74
330
2
100
AcDbSymbolTableRecord
100
AcDbLayerTableRecord
  2
OSA
 70
     0
 62
     7
  6
CENTER
370
    -3
390
F
  0
LAYER
  5
75
330
2
100
AcDbSymbolTableRecord
100
AcDbLayerTableRecord
  2
0_35
 70
     0
 62
     7
  6
Continuous
370
    35
390
F
  0
LAYER
  5
76
330
2
100
AcDbSymbolTableRecord
100
AcDbLayerTableRecord
  2
0_5
 70
     0
 62
     7
  6
Continuous
370
    50
390
F
  0
LAYER
  5
77
330
2
100
AcDbSymbolTableRecord
100
AcDbLayerTableRecord
  2
0_25
 70
     0
 62
     7
  6
Continuous
370
    25
390
F
  0
LAYER
  5
78
330
2
100
AcDbSymbolTableRecord
100
AcDbLayerTableRecord
  2
0_18
 70
     0
 62
     7
  6
Continuous
370
    -3
390
F
  0
LAYER
  5
79
330
2
100
AcDbSymbolTableRecord
100
AcDbLayerTableRecord
  2
SLD-0
 70
     0
 62
   179
  6
Continuous
370
    -3
390
F
  0
LAYER
  5
7A
330
2
100
AcDbSymbolTableRecord
100
AcDbLayerTableRecord
  2
KOTY
 70
     0
 62
     7
  6
Continuous
370
    -3
390
F
  0
LAYER
  5
7B
330
2
100
AcDbSymbolTableRecord
100
AcDbLayerTableRecord
  2
SILNA
 70
     0
 62
   179
  6
Continuous
370
    -3
390
F
  0
LAYER
  5
7C
330
2
100
AcDbSymbolTableRecord
100
AcDbLayerTableRecord
  2
0_18_1
 70
     0
 62
   179
  6
Continuous
370
    -3
390
F
  0
LAYER
  5
7D
330
2
100
AcDbSymbolTableRecord
100
AcDbLayerTableRecord
  2
0_35_1
 70
     0
 62
   179
  6
Continuous
370
    35
390
F
  0
LAYER
  5
7E
330
2
100
AcDbSymbolTableRecord
100
AcDbLayerTableRecord
  2
0_5_1
 70
     0
 62
   179
  6
Continuous
370
    50
390
F
  0
ENDTAB
  0
TABLE
  2
STYLE
  5
3
330
0
100
AcDbSymbolTable
 70
     1
  0
STYLE
  5
11
330
3
100
AcDbSymbolTableRecord
100
AcDbTextStyleTableRecord
  2
Standard
 70
     0
 40
0.0
 41
1.0
 50
0.0
 71
     0
 42
2.0
  3
txt
  4

  0
ENDTAB
  0
TABLE
  2
VIEW
  5
6
330
0
100
AcDbSymbolTable
 70
     0
  0
ENDTAB
  0
TABLE
  2
UCS
  5
7
330
0
100
AcDbSymbolTable
 70
     0
  0
ENDTAB
  0
TABLE
  2
APPID
  5
9
330
0
100
AcDbSymbolTable
 70
     1
  0
APPID
  5
12
330
9
100
AcDbSymbolTableRecord
100
AcDbRegAppTableRecord
  2
ACAD
 70
     0
  0
ENDTAB
  0
TABLE
  2
DIMSTYLE
  5
A
330
0
100
AcDbSymbolTable
 70
     1
100
AcDbDimStyleTable
  0
DIMSTYLE
105
27
330
A
100
AcDbSymbolTableRecord
100
AcDbDimStyleTableRecord
  2
ISO-25
 70
     0
 41
2.5
 42
0.625
 43
3.75
 44
1.25
 73
     0
 74
     0
 77
     1
 78
     8
140
2.5
141
2.5
143
0.0393700787
147
0.625
171
     3
172
     1
178
     0
271
     2
272
     2
274
     3
278
    44
283
     0
284
     8
340
11
  0
ENDTAB
  0
TABLE
  2
BLOCK_RECORD
  5
1
330
0
100
AcDbSymbolTable
 70
     1
  0
BLOCK_RECORD
  5
1F
330
1
100
AcDbSymbolTableRecord
100
AcDbBlockTableRecord
  2
*Model_Space
340
22
  0
BLOCK_RECORD
  5
1B
330
1
100
AcDbSymbolTableRecord
100
AcDbBlockTableRecord
  2
*Paper_Space
340
1E
  0
BLOCK_RECORD
  5
23
330
1
100
AcDbSymbolTableRecord
100
AcDbBlockTableRecord
  2
*Paper_Space0
340
26
  0
ENDTAB
  0
ENDSEC
  0
SECTION
  2
BLOCKS
  0
BLOCK
  5
20
330
1F
100
AcDbEntity
  8
0
100
AcDbBlockBegin
  2
*Model_Space
 70
     0
 10
0.0
 20
0.0
 30
0.0
  3
*Model_Space
  1

  0
ENDBLK
  5
21
330
1F
100
AcDbEntity
  8
0
100
AcDbBlockEnd
  0
BLOCK
  5
1C
330
1B
100
AcDbEntity
 67
     1
  8
0
100
AcDbBlockBegin
  2
*Paper_Space
 70
     0
 10
0.0
 20
0.0
 30
0.0
  3
*Paper_Space
  1

  0
ENDBLK
  5
1D
330
1B
100
AcDbEntity
 67
     1
  8
0
100
AcDbBlockEnd
  0
BLOCK
  5
24
330
23
100
AcDbEntity
  8
0
100
AcDbBlockBegin
  2
*Paper_Space0
 70
     0
 10
0.0
 20
0.0
 30
0.0
  3
*Paper_Space0
  1

  0
ENDBLK
  5
25
330
23
100
AcDbEntity
  8
0
100
AcDbBlockEnd
  0
ENDSEC
  0
SECTION
  2
ENTITIES
  0
SPLINE
  5
7F
330
1F
100
AcDbEntity
  8
0
  6
Continuous
 62
     7
370
    25
100
AcDbSpline
210
0.0
220
0.0
230
1.0
 70
     8
 71
     3
 72
    11
 73
     7
 74
     0
 42
0.00000001
 43
0.00000001
 40
0.0
 40
0.0
 40
0.0
 40
0.0
 40
0.2813320491267233
 40
0.5586639167510715
 40
0.7779818574688265
 40
1.0
 40
1.0
 40
1.0
 40
1.0
 10
6224.057313202799
 20
5248.231307189956
 30
0.0
 10
6224.145325527196
 20
5248.242844799707
 30
0.0
 10
6224.320098753436
 20
5248.265755969172
 30
0.0
 10
6224.513985810014
 20
5248.426241560182
 30
0.0
 10
6224.632558186379
 20
5248.620852984595
 30
0.0
 10
6224.646703510712
 20
5248.758545803653
 30
0.0
 10
6224.65381944515
 20
5248.827813432307
 30
0.0
  0
LINE
  5
80
330
1F
100
AcDbEntity
  8
0
  6
Continuous
 62
     7
370
    25
100
AcDbLine
 10
6224.6538194452
 20
5248.8278134323
 30
0.0
 11
6224.6538194452
 21
5263.5335906539
 31
0.0
  0
SPLINE
  5
81
330
1F
100
AcDbEntity
  8
0
  6
Continuous
 62
     7
370
    25
100
AcDbSpline
210
0.0
220
0.0
230
1.0
 70
     8
 71
     3
 72
    11
 73
     7
 74
     0
 42
0.00000001
 43
0.00000001
 40
0.0
 40
0.0
 40
0.0
 40
0.0
 40
0.2813366005445589
 40
0.558662264701871
 40
0.7779774938132714
 40
1.0
 40
1.0
 40
1.0
 40
1.0
 10
6224.65381944515
 20
5263.533590653935
 30
0.0
 10
6224.642258281541
 20
5263.621783098157
 30
0.0
 10
6224.619300778562
 20
5263.796910651852
 30
0.0
 10
6224.458491405813
 20
5263.991191145691
 30
0.0
 10
6224.263485311015
 20
5264.110002210091
 30
0.0
 10
6224.12551249645
 20
5264.124176547014
 30
0.0
 10
6224.05610290913
 20
5264.131307189956
 30
0.0
  0
LINE
  5
82
330
1F
100
AcDbEntity
  8
0
  6
Continuous
 62
     7
370
    25
100
AcDbLine
 10
6224.0561029091
 20
5264.13130719
 30
0.0
 11
6198.852279841
 21
5264.13130719
 31
0.0
  0
SPLINE
  5
83
330
1F
100
AcDbEntity
  8
0
  6
Continuous
 62
     7
370
    25
100
AcDbSpline
210
0.0
220
0.0
230
1.0
 70
     8
 71
     3
 72
    11
 73
     7
 74
     0
 42
0.00000001
 43
0.00000001
 40
0.0
 40
0.0
 40
0.0
 40
0.0
 40
0.2813393887554229
 40
0.5586612526516456
 40
0.7779748206257533
 40
1.0
 40
1.0
 40
1.0
 40
1.0
 10
6198.852279840984
 20
5264.131307189956
 30
0.0
 10
6198.763976693137
 20
5264.119731549886
 30
0.0
 10
6198.588631365888
 20
5264.096745569819
 30
0.0
 10
6198.394109061182
 20
5263.935737197246
 30
0.0
 10
6198.275151296483
 20
5263.740488533685
 30
0.0
 10
6198.260959128103
 20
5263.602343630799
 30
0.0
 10
6198.253819445151
 20
5263.532846794124
 30
0.0
  0
LINE
  5
84
330
1F
100
AcDbEntity
  8
0
  6
Continuous
 62
     7
370
    25
100
AcDbLine
 10
6198.2538194452
 20
5263.5328467941
 30
0.0
 11
6198.2538194452
 21
5248.8307616739
 31
0.0
  0
SPLINE
  5
85
330
1F
100
AcDbEntity
  8
0
  6
Continuous
 62
     7
370
    25
100
AcDbSpline
210
0.0
220
0.0
230
1.0
 70
     8
 71
     3
 72
    11
 73
     7
 74
     0
 42
0.00000001
 43
0.00000001
 40
0.0
 40
0.0
 40
0.0
 40
0.0
 40
0.2813431040867934
 40
0.5586599040795476
 40
0.7779712585642347
 40
1.0
 40
1.0
 40
1.0
 40
1.0
 10
6198.253819445151
 20
5248.830761673879
 30
0.0
 10
6198.265414431442
 20
5248.742310582626
 30
0.0
 10
6198.288438468056
 20
5248.566674224606
 30
0.0
 10
6198.44971278235
 20
5248.371828765866
 30
0.0
 10
6198.645285612795
 20
5248.252674952097
 30
0.0
 10
6198.783660493084
 20
5248.238458953905
 30
0.0
 10
6198.853273929074
 20
5248.231307189956
 30
0.0
  0
LINE
  5
86
330
1F
100
AcDbEntity
  8
0
  6
Continuous
 62
     7
370
    25
100
AcDbLine
 10
6198.8532739291
 20
5248.23130719
 30
0.0
 11
6224.0573132028
 21
5248.23130719
 31
0.0
  0
LINE
  5
87
330
1F
100
AcDbEntity
  8
0
  6
Continuous
 62
     7
370
    25
100
AcDbLine
 10
6197.4538194452
 20
5263.5328467941
 30
0.0
 11
6197.4538194452
 21
5248.8307616739
 31
0.0
  0
SPLINE
  5
88
330
1F
100
AcDbEntity
  8
0
  6
Continuous
 62
     7
370
    25
100
AcDbSpline
210
0.0
220
0.0
230
1.0
 70
     8
 71
     3
 72
    11
 73
     7
 74
     0
 42
0.00000001
 43
0.00000001
 40
0.0
 40
0.0
 40
0.0
 40
0.0
 40
0.2833162653304976
 40
0.5580485543469847
 40
0.7754339450992691
 40
1.0
 40
1.0
 40
1.0
 40
1.0
 10
6198.852279840984
 20
5264.931307189956
 30
0.0
 10
6198.644365800919
 20
5264.904062434124
 30
0.0
 10
6198.234837144487
 20
5264.850398389851
 30
0.0
 10
6197.7805531716
 20
5264.476442190001
 30
0.0
 10
6197.504002496676
 20
5264.020660977881
 30
0.0
 10
6197.470727343134
 20
5263.697203328918
 30
0.0
 10
6197.453819445152
 20
5263.532846794124
 30
0.0
  0
LINE
  5
89
330
1F
100
AcDbEntity
  8
0
  6
Continuous
 62
     7
370
    25
100
AcDbLine
 10
6224.0561029091
 20
5264.93130719
 30
0.0
 11
6198.852279841
 21
5264.93130719
 31
0.0
  0
LINE
  5
8A
330
1F
100
AcDbEntity
  8
0
  6
Continuous
 62
     7
370
    25
100
AcDbLine
 10
6198.8532739291
 20
5247.43130719
 30
0.0
 11
6224.0573132028
 21
5247.43130719
 31
0.0
  0
SPLINE
  5
8B
330
1F
100
AcDbEntity
  8
0
  6
Continuous
 62
     7
370
    25
100
AcDbSpline
210
0.0
220
0.0
230
1.0
 70
     8
 71
     3
 72
    11
 73
     7
 74
     0
 42
0.00000001
 43
0.00000001
 40
0.0
 40
0.0
 40
0.0
 40
0.0
 40
0.2833162653304963
 40
0.5580485543469887
 40
0.7754339450992677
 40
1.0
 40
1.0
 40
1.0
 40
1.0
 10
6197.453819445152
 20
5248.830761673879
 30
0.0
 10
6197.481083567772
 20
5248.622699839232
 30
0.0
 10
6197.534785758843
 20
5248.212880071545
 30
0.0
 10
6197.909007783457
 20
5247.758273173326
 30
0.0
 10
6198.365112985214
 20
5247.481525913835
 30
0.0
 10
6198.688800562316
 20
5247.448227106829
 30
0.0
 10
6198.853273929074
 20
5247.431307189956
 30
0.0
  0
SPLINE
  5
8C
330
1F
100
AcDbEntity
  8
0
  6
Continuous
 62
     7
370
    25
100
AcDbSpline
210
0.0
220
0.0
230
1.0
 70
     8
 71
     3
 72
    11
 73
     7
 74
     0
 42
0.00000001
 43
0.00000001
 40
0.0
 40
0.0
 40
0.0
 40
0.0
 40
0.2833162653304962
 40
0.5580485543469855
 40
0.7754339450992696
 40
1.0
 40
1.0
 40
1.0
 40
1.0
 10
6224.057313202799
 20
5247.431307189956
 30
0.0
 10
6224.264936711972
 20
5247.458513875039
 30
0.0
 10
6224.673893109189
 20
5247.51210293129
 30
0.0
 10
6225.127542283543
 20
5247.885536579474
 30
0.0
 10
6225.403706517446
 20
5248.340680900878
 30
0.0
 10
6225.436935173598
 20
5248.663686562862
 30
0.0
 10
6225.453819445151
 20
5248.827813432307
 30
0.0
  0
LINE
  5
8D
330
1F
100
AcDbEntity
  8
0
  6
Continuous
 62
     7
370
    25
100
AcDbLine
 10
6225.4538194452
 20
5248.8278134323
 30
0.0
 11
6225.4538194452
 21
5263.5335906539
 31
0.0
  0
SPLINE
  5
8E
330
1F
100
AcDbEntity
  8
0
  6
Continuous
 62
     7
370
    25
100
AcDbSpline
210
0.0
220
0.0
230
1.0
 70
     8
 71
     3
 72
    11
 73
     7
 74
     0
 42
0.00000001
 43
0.00000001
 40
0.0
 40
0.0
 40
0.0
 40
0.0
 40
0.2833162653304985
 40
0.5580485543469871
 40
0.7754339450992683
 40
1.0
 40
1.0
 40
1.0
 40
1.0
 10
6225.453819445151
 20
5263.533590653935
 30
0.0
 10
6225.426589181169
 20
5263.741394101738
 30
0.0
 10
6225.372953681521
 20
5264.150704924394
 30
0.0
 10
6224.999196393981
 20
5264.604747257551
 30
0.0
 10
6224.543657617991
 20
5264.881150831469
 30
0.0
 10
6224.220372020483
 20
5264.914408285509
 30
0.0
 10
6224.05610290913
 20
5264.931307189956
 30
0.0
  0
SPLINE
  5
8F
330
1F
100
AcDbEntity
  8
0
  6
Continuous
 62
     7
370
    25
100
AcDbSpline
210
0.0
220
0.0
230
1.0
 70
     8
 71
     3
 72
    11
 73
     7
 74
     0
 42
0.00000001
 43
0.00000001
 40
0.0
 40
0.0
 40
0.0
 40
0.0
 40
0.2833187573284379
 40
0.5580518293238194
 40
0.7754353617339634
 40
1.0
 40
1.0
 40
1.0
 40
1.0
 10
6200.336333397033
 20
5252.312981314261
 30
0.0
 10
6200.346882329965
 20
5252.232515134741
 30
0.0
 10
6200.367660521197
 20
5252.074021221018
 30
0.0
 10
6200.512392454764
 20
5251.898209836576
 30
0.0
 10
6200.688791354443
 20
5251.791186321737
 30
0.0
 10
6200.813974988087
 20
5251.778316116111
 30
0.0
 10
6200.877583843768
 20
5251.771776450915
 30
0.0
  0
LINE
  5
90
330
1F
100
AcDbEntity
  8
0
  6
Continuous
 62
     7
370
    25
100
AcDbLine
 10
6200.8775838438
 20
5251.7717764509
 30
0.0
 11
6201.662452535
 21
5251.7718049942
 31
0.0
  0
LINE
  5
91
330
1F
100
AcDbEntity
  8
0
  6
Continuous
 62
     7
370
    25
100
AcDbLine
 10
6201.662452535
 20
5251.7718049942
 30
0.0
 11
6201.662452535
 21
5252.3718049945
 31
0.0
  0
LINE
  5
92
330
1F
100
AcDbEntity
  8
0
  6
Continuous
 62
     7
370
    25
100
AcDbLine
 10
6200.3363324606
 20
5252.3717567677
 30
0.0
 11
6201.662452535
 21
5252.3718049945
 31
0.0
  0
LINE
  5
93
330
1F
100
AcDbEntity
  8
0
  6
Continuous
 62
     7
370
    25
100
AcDbLine
 10
6200.3363324606
 20
5252.3717567677
 30
0.0
 11
6200.336333397
 21
5252.3129813143
 31
0.0
  0
SPLINE
  5
94
330
1F
100
AcDbEntity
  8
0
  6
Continuous
 62
     7
370
    25
100
AcDbSpline
210
0.0
220
0.0
230
1.0
 70
     8
 71
     3
 72
    11
 73
     7
 74
     0
 42
0.00000001
 43
0.00000001
 40
0.0
 40
0.0
 40
0.0
 40
0.0
 40
0.2833234514304522
 40
0.558050235951006
 40
0.7754304268038829
 40
1.0
 40
1.0
 40
1.0
 40
1.0
 10
6200.877490870759
 20
5255.171776449783
 30
0.0
 10
6200.79702627032
 20
5255.161231780707
 30
0.0
 10
6200.638538545303
 20
5255.140462391389
 30
0.0
 10
6200.462728282122
 20
5254.995745483621
 30
0.0
 10
6200.355708845785
 20
5254.819355654462
 30
0.0
 10
6200.342837060906
 20
5254.694177219582
 30
0.0
 10
6200.336296473102
 20
5254.630569837068
 30
0.0
  0
LINE
  5
95
330
1F
100
AcDbEntity
  8
0
  6
Continuous
 62
     7
370
    25
100
AcDbLine
 10
6200.3362964731
 20
5254.6305698371
 30
0.0
 11
6200.3362974101
 21
5254.5717567679
 31
0.0
  0
LINE
  5
96
330
1F
100
AcDbEntity
  8
0
  6
Continuous
 62
     7
370
    25
100
AcDbLine
 10
6200.3362974101
 20
5254.5717567679
 30
0.0
 11
6201.662452535
 21
5254.571804996
 31
0.0
  0
LINE
  5
97
330
1F
100
AcDbEntity
  8
0
  6
Continuous
 62
     7
370
    25
100
AcDbLine
 10
6201.662452535
 20
5254.571804996
 30
0.0
 11
6201.662452535
 21
5255.1718049964
 31
0.0
  0
LINE
  5
98
330
1F
100
AcDbEntity
  8
0
  6
Continuous
 62
     7
370
    25
100
AcDbLine
 10
6201.662452535
 20
5255.1718049964
 30
0.0
 11
6200.8774908708
 21
5255.1717764498
 31
0.0
  0
LINE
  5
99
330
1F
100
AcDbEntity
  8
0
  6
Continuous
 62
     7
370
    25
100
AcDbLine
 10
6203.9476264936
 20
5255.1718881011
 30
0.0
 11
6203.162452535
 21
5255.1718595467
 31
0.0
  0
LINE
  5
9A
330
1F
100
AcDbEntity
  8
0
  6
Continuous
 62
     7
370
    25
100
AcDbLine
 10
6203.162452535
 20
5254.5718595463
 30
0.0
 11
6203.162452535
 21
5255.1718595467
 31
0.0
  0
LINE
  5
9B
330
1F
100
AcDbEntity
  8
0
  6
Continuous
 62
     7
370
    25
100
AcDbLine
 10
6204.4888402048
 20
5254.5719077829
 30
0.0
 11
6204.4888405738
 21
5254.6307011712
 31
0.0
  0
SPLINE
  5
9C
330
1F
100
AcDbEntity
  8
0
  6
Continuous
 62
     7
370
    25
100
AcDbSpline
210
0.0
220
0.0
230
1.0
 70
     8
 71
     3
 72
    11
 73
     7
 74
     0
 42
0.00000001
 43
0.00000001
 40
0.0
 40
0.0
 40
0.0
 40
0.0
 40
0.2833024706387679
 40
0.5580380683825692
 40
0.7754299109644054
 40
1.0
 40
1.0
 40
1.0
 40
1.0
 10
6203.94761194787
 20
5251.771832269319
 30
0.0
 10
6204.028073534679
 20
5251.782377822731
 30
0.0
 10
6204.186563604958
 20
5251.803150039233
 30
0.0
 10
6204.362371619484
 20
5251.947882025997
 30
0.0
 10
6204.469402865303
 20
5252.124278424998
 30
0.0
 10
6204.482281914275
 20
5252.24946406254
 30
0.0
 10
6204.48882602807
 20
5252.313073499819
 30
0.0
  0
LINE
  5
9D
330
1F
100
AcDbEntity
  8
0
  6
Continuous
 62
     7
370
    25
100
AcDbLine
 10
6204.4888260281
 20
5252.3130734998
 30
0.0
 11
6204.4888263973
 21
5252.371907781
 31
0.0
  0
LINE
  5
9E
330
1F
100
AcDbEntity
  8
0
  6
Continuous
 62
     7
370
    25
100
AcDbLine
 10
6203.162452535
 20
5252.3718595449
 30
0.0
 11
6204.4888263973
 21
5252.371907781
 31
0.0
  0
LINE
  5
9F
330
1F
100
AcDbEntity
  8
0
  6
Continuous
 62
     7
370
    25
100
AcDbLine
 10
6203.162452535
 20
5251.7718322693
 30
0.0
 11
6203.162452535
 21
5252.3718595449
 31
0.0
  0
LINE
  5
A0
330
1F
100
AcDbEntity
  8
0
  6
Continuous
 62
     7
370
    25
100
AcDbLine
 10
6203.162452535
 20
5251.7718322693
 30
0.0
 11
6203.9476119479
 21
5251.7718322693
 31
0.0
  0
LINE
  5
A1
330
1F
100
AcDbEntity
  8
0
  6
Continuous
 62
     7
370
    25
100
AcDbLine
 10
6200.3363181218
 20
5253.2717567678
 30
0.0
 11
6200.3363260878
 21
5252.7717567677
 31
0.0
  0
LINE
  5
A2
330
1F
100
AcDbEntity
  8
0
  6
Continuous
 62
     7
370
    25
100
AcDbLine
 10
6200.3363260878
 20
5252.7717567677
 30
0.0
 11
6201.662452535
 21
5252.7718049948
 31
0.0
  0
LINE
  5
A3
330
1F
100
AcDbEntity
  8
0
  6
Continuous
 62
     7
370
    25
100
AcDbLine
 10
6201.662452535
 20
5252.7718049948
 30
0.0
 11
6201.662452535
 21
5253.2718049951
 31
0.0
  0
LINE
  5
A4
330
1F
100
AcDbEntity
  8
0
  6
Continuous
 62
     7
370
    25
100
AcDbLine
 10
6200.3363181218
 20
5253.2717567678
 30
0.0
 11
6201.662452535
 21
5253.2718049951
 31
0.0
  0
LINE
  5
A5
330
1F
100
AcDbEntity
  8
0
  6
Continuous
 62
     7
370
    25
100
AcDbLine
 10
6200.3363037829
 20
5254.1717567678
 30
0.0
 11
6200.336311749
 21
5253.6717567678
 31
0.0
  0
LINE
  5
A6
330
1F
100
AcDbEntity
  8
0
  6
Continuous
 62
     7
370
    25
100
AcDbLine
 10
6200.336311749
 20
5253.6717567678
 30
0.0
 11
6201.662452535
 21
5253.6718049954
 31
0.0
  0
LINE
  5
A7
330
1F
100
AcDbEntity
  8
0
  6
Continuous
 62
     7
370
    25
100
AcDbLine
 10
6201.662452535
 20
5253.6718049954
 30
0.0
 11
6201.662452535
 21
5254.1718049957
 31
0.0
  0
LINE
  5
A8
330
1F
100
AcDbEntity
  8
0
  6
Continuous
 62
     7
370
    25
100
AcDbLine
 10
6200.3363037829
 20
5254.1717567678
 30
0.0
 11
6201.662452535
 21
5254.1718049957
 31
0.0
  0
LINE
  5
A9
330
1F
100
AcDbEntity
  8
0
  6
Continuous
 62
     7
370
    25
100
AcDbLine
 10
6202.762452535
 20
5255.171845
 30
0.0
 11
6202.062452535
 21
5255.1718195432
 31
0.0
  0
LINE
  5
AA
330
1F
100
AcDbEntity
  8
0
  6
Continuous
 62
     7
370
    25
100
AcDbLine
 10
6202.062452535
 20
5251.7718195409
 30
0.0
 11
6202.062452535
 21
5255.1718195432
 31
0.0
  0
LINE
  5
AB
330
1F
100
AcDbEntity
  8
0
  6
Continuous
 62
     7
370
    25
100
AcDbLine
 10
6202.062452535
 20
5251.7718195409
 30
0.0
 11
6202.412452535
 21
5251.7718322693
 31
0.0
  0
LINE
  5
AC
330
1F
100
AcDbEntity
  8
0
  6
Continuous
 62
     7
370
    25
100
AcDbLine
 10
6202.412452535
 20
5251.7718322693
 30
0.0
 11
6202.762452535
 21
5251.7718322693
 31
0.0
  0
LINE
  5
AD
330
1F
100
AcDbEntity
  8
0
  6
Continuous
 62
     7
370
    25
100
AcDbLine
 10
6202.762452535
 20
5251.7718322693
 30
0.0
 11
6202.762452535
 21
5255.171845
 31
0.0
  0
LINE
  5
AE
330
1F
100
AcDbEntity
  8
0
  6
Continuous
 62
     7
370
    25
100
AcDbLine
 10
6203.162452535
 20
5253.6718595457
 30
0.0
 11
6203.162452535
 21
5254.1718595461
 31
0.0
  0
LINE
  5
AF
330
1F
100
AcDbEntity
  8
0
  6
Continuous
 62
     7
370
    25
100
AcDbLine
 10
6203.162452535
 20
5253.6718595457
 30
0.0
 11
6204.4888345563
 21
5253.6719077821
 31
0.0
  0
LINE
  5
B0
330
1F
100
AcDbEntity
  8
0
  6
Continuous
 62
     7
370
    25
100
AcDbLine
 10
6203.162452535
 20
5252.7718595451
 30
0.0
 11
6203.162452535
 21
5253.2718595455
 31
0.0
  0
LINE
  5
B1
330
1F
100
AcDbEntity
  8
0
  6
Continuous
 62
     7
370
    25
100
AcDbLine
 10
6203.162452535
 20
5252.7718595451
 30
0.0
 11
6204.4888289078
 21
5252.7719077813
 31
0.0
  0
LINE
  5
B2
330
1F
100
AcDbEntity
  8
0
  6
Continuous
 62
     7
370
    25
100
AcDbLine
 10
6199.9363221048
 20
5254.5780648378
 30
0.0
 11
6199.9363221048
 21
5252.4153319767
 31
0.0
  0
SPLINE
  5
B3
330
1F
100
AcDbEntity
  8
0
  6
Continuous
 62
     7
370
    25
100
AcDbSpline
210
0.0
220
0.0
230
1.0
 70
     8
 71
     3
 72
    11
 73
     7
 74
     0
 42
0.00000001
 43
0.00000001
 40
0.0
 40
0.0
 40
0.0
 40
0.0
 40
0.2843310624010903
 40
0.5575649939146794
 40
0.7750953705934901
 40
1.0
 40
1.0
 40
1.0
 40
1.0
 10
6200.930019592491
 20
5255.571778360353
 30
0.0
 10
6200.781707553716
 20
5255.5524000126
 30
0.0
 10
6200.490871933089
 20
5255.514399632846
 30
0.0
 10
6200.167825067661
 20
5255.249078867891
 30
0.0
 10
6199.972374531577
 20
5254.925080904939
 30
0.0
 10
6199.948472376187
 20
5254.695015062008
 30
0.0
 10
6199.936322104789
 20
5254.578064837834
 30
0.0
  0
LINE
  5
B4
330
1F
100
AcDbEntity
  8
0
  6
Continuous
 62
     7
370
    25
100
AcDbLine
 10
6203.8948854774
 20
5255.5718861833
 30
0.0
 11
6200.9300195925
 21
5255.5717783604
 31
0.0
  0
LINE
  5
B5
330
1F
100
AcDbEntity
  8
0
  6
Continuous
 62
     7
370
    25
100
AcDbLine
 10
6204.8886045577
 20
5252.4154241359
 30
0.0
 11
6204.8886045577
 21
5254.5781942534
 31
0.0
  0
SPLINE
  5
B6
330
1F
100
AcDbEntity
  8
0
  6
Continuous
 62
     7
370
    25
100
AcDbSpline
210
0.0
220
0.0
230
1.0
 70
     8
 71
     3
 72
    11
 73
     7
 74
     0
 42
0.00000001
 43
0.00000001
 40
0.0
 40
0.0
 40
0.0
 40
0.0
 40
0.2843413251576604
 40
0.557569463071058
 40
0.775094375321084
 40
1.0
 40
1.0
 40
1.0
 40
1.0
 10
6203.947306679417
 20
5251.371888086929
 30
0.0
 10
6204.094434280849
 20
5251.398872050931
 30
0.0
 10
6204.382939153251
 20
5251.451785338551
 30
0.0
 10
6204.691902849024
 20
5251.733390518518
 30
0.0
 10
6204.870435179991
 20
5252.06700883371
 30
0.0
 10
6204.882481114223
 20
5252.298001215172
 30
0.0
 10
6204.88860455765
 20
5252.415424135862
 30
0.0
  0
LINE
  5
B7
330
1F
100
AcDbEntity
  8
0
  6
Continuous
 62
     7
370
    25
100
AcDbLine
 10
6200.8775983905
 20
5251.3717764512
 30
0.0
 11
6203.9473066794
 21
5251.3718880869
 31
0.0
  0
SPLINE
  5
B8
330
1F
100
AcDbEntity
  8
0
  6
Continuous
 62
     7
370
    25
100
AcDbSpline
210
0.0
220
0.0
230
1.0
 70
     8
 71
     3
 72
    11
 73
     7
 74
     0
 42
0.00000001
 43
0.00000001
 40
0.0
 40
0.0
 40
0.0
 40
0.0
 40
0.2843338113746082
 40
0.5575640349880147
 40
0.7750926765347518
 40
1.0
 40
1.0
 40
1.0
 40
1.0
 10
6199.936322104789
 20
5252.415331976727
 30
0.0
 10
6199.948043331583
 20
5252.266214234958
 30
0.0
 10
6199.971028056736
 20
5251.973801984066
 30
0.0
 10
6200.21937789307
 20
5251.637524669252
 30
0.0
 10
6200.532888260395
 20
5251.425647291846
 30
0.0
 10
6200.761424550047
 20
5251.389931944456
 30
0.0
 10
6200.877598390524
 20
5251.371776451179
 30
0.0
  0
LINE
  5
B9
330
1F
100
AcDbEntity
  8
0
  6
Continuous
 62
     7
370
    25
100
AcDbLine
 10
6204.4888289078
 20
5252.7719077813
 30
0.0
 11
6204.4888320458
 21
5253.2719077818
 31
0.0
  0
LINE
  5
BA
330
1F
100
AcDbEntity
  8
0
  6
Continuous
 62
     7
370
    25
100
AcDbLine
 10
6204.4888345563
 20
5253.6719077821
 30
0.0
 11
6204.4888376944
 21
5254.1719077826
 31
0.0
  0
LINE
  5
BB
330
1F
100
AcDbEntity
  8
0
  6
Continuous
 62
     7
370
    25
100
AcDbLine
 10
6203.162452535
 20
5254.1718595461
 30
0.0
 11
6204.4888376944
 21
5254.1719077826
 31
0.0
  0
SPLINE
  5
BC
330
1F
100
AcDbEntity
  8
0
  6
Continuous
 62
     7
370
    25
100
AcDbSpline
210
0.0
220
0.0
230
1.0
 70
     8
 71
     3
 72
    11
 73
     7
 74
     0
 42
0.00000001
 43
0.00000001
 40
0.0
 40
0.0
 40
0.0
 40
0.0
 40
0.2843534260553081
 40
0.5575893162039715
 40
0.7751093509261756
 40
1.0
 40
1.0
 40
1.0
 40
1.0
 10
6204.88860455765
 20
5254.57819425341
 30
0.0
 10
6204.869223716266
 20
5254.726518166081
 30
0.0
 10
6204.831219777838
 20
5255.017366882729
 30
0.0
 10
6204.565869262896
 20
5255.340399397955
 30
0.0
 10
6204.24187878281
 20
5255.535829934714
 30
0.0
 10
6204.011827473251
 20
5255.559734681806
 30
0.0
 10
6203.89488547745
 20
5255.57188618331
 30
0.0
  0
LINE
  5
BD
330
1F
100
AcDbEntity
  8
0
  6
Continuous
 62
     7
370
    25
100
AcDbLine
 10
6203.162452535
 20
5254.5718595463
 30
0.0
 11
6204.4888402048
 21
5254.5719077829
 31
0.0
  0
SPLINE
  5
BE
330
1F
100
AcDbEntity
  8
0
  6
Continuous
 62
     7
370
    25
100
AcDbSpline
210
0.0
220
0.0
230
1.0
 70
     8
 71
     3
 72
    11
 73
     7
 74
     0
 42
0.00000001
 43
0.00000001
 40
0.0
 40
0.0
 40
0.0
 40
0.0
 40
0.2833220891007052
 40
0.558053504749467
 40
0.7754382867258316
 40
1.0
 40
1.0
 40
1.0
 40
1.0
 10
6204.488840573812
 20
5254.630701171172
 30
0.0
 10
6204.478296198087
 20
5254.711165313352
 30
0.0
 10
6204.45752716505
 20
5254.869653826167
 30
0.0
 10
6204.312795844825
 20
5255.045454816114
 30
0.0
 10
6204.136406537958
 20
5255.152469125178
 30
0.0
 10
6204.01123076682
 20
5255.165345408213
 30
0.0
 10
6203.947626493612
 20
5255.171888101073
 30
0.0
  0
LINE
  5
BF
330
1F
100
AcDbEntity
  8
0
  6
Continuous
 62
     7
370
    25
100
AcDbLine
 10
6203.162452535
 20
5253.2718595455
 30
0.0
 11
6204.4888320458
 21
5253.2719077818
 31
0.0
  0
SPLINE
  5
C0
330
1F
100
AcDbEntity
  8
0
  6
Continuous
 62
     7
370
    25
100
AcDbSpline
210
0.0
220
0.0
230
1.0
 70
     8
 71
     3
 72
    11
 73
     7
 74
     0
 42
0.00000001
 43
0.00000001
 40
0.0
 40
0.0
 40
0.0
 40
0.0
 40
0.2833188256020335
 40
0.5580476851072159
 40
0.7754312533253628
 40
1.0
 40
1.0
 40
1.0
 40
1.0
 10
6218.410231044591
 20
5256.819516560238
 30
0.0
 10
6218.368754050014
 20
5256.824951214478
 30
0.0
 10
6218.287057605172
 20
5256.835655749241
 30
0.0
 10
6218.196432408645
 20
5256.910254934303
 30
0.0
 10
6218.141264981695
 20
5257.001178767588
 30
0.0
 10
6218.134627440927
 20
5257.065705163312
 30
0.0
 10
6218.131254714592
 20
5257.098492890238
 30
0.0
  0
LINE
  5
C1
330
1F
100
AcDbEntity
  8
0
  6
Continuous
 62
     7
370
    25
100
AcDbLine
 10
6218.1312547146
 20
5257.0984928902
 30
0.0
 11
6218.1312547146
 21
5258.4006156802
 31
0.0
  0
SPLINE
  5
C2
330
1F
100
AcDbEntity
  8
0
  6
Continuous
 62
     7
370
    25
100
AcDbSpline
210
0.0
220
0.0
230
1.0
 70
     8
 71
     3
 72
    11
 73
     7
 74
     0
 42
0.00000001
 43
0.00000001
 40
0.0
 40
0.0
 40
0.0
 40
0.0
 40
0.2833421469451738
 40
0.5580701052107122
 40
0.7754438076288046
 40
0.9999999999999999
 40
0.9999999999999999
 40
0.9999999999999999
 40
0.9999999999999999
 10
6218.131254714592
 20
5258.400615680238
 30
0.0
 10
6218.136688811483
 20
5258.442098537538
 30
0.0
 10
6218.147391797455
 20
5258.523803087273
 30
0.0
 10
6218.221991021267
 20
5258.614439056723
 30
0.0
 10
6218.312916513167
 20
5258.669609657708
 30
0.0
 10
6218.377443292438
 20
5258.676247260061
 30
0.0
 10
6218.410231044591
 20
5258.679620000238
 30
0.0
  0
LINE
  5
C3
330
1F
100
AcDbEntity
  8
0
  6
Continuous
 62
     7
370
    25
100
AcDbLine
 10
6218.4102310446
 20
5258.6796200002
 30
0.0
 11
6222.7038783846
 21
5258.6796200002
 31
0.0
  0
SPLINE
  5
C4
330
1F
100
AcDbEntity
  8
0
  6
Continuous
 62
     7
370
    25
100
AcDbSpline
210
0.0
220
0.0
230
1.0
 70
     8
 71
     3
 72
    11
 73
     7
 74
     0
 42
0.00000001
 43
0.00000001
 40
0.0
 40
0.0
 40
0.0
 40
0.0
 40
0.2833031842701249
 40
0.5580226575521847
 40
0.7754106245611232
 40
1.0
 40
1.0
 40
1.0
 40
1.0
 10
6222.703878384592
 20
5258.679620000238
 30
0.0
 10
6222.745355476346
 20
5258.674185301489
 30
0.0
 10
6222.827052958948
 20
5258.663480568159
 30
0.0
 10
6222.917679205008
 20
5258.588875915896
 30
0.0
 10
6222.972845495032
 20
5258.497942023172
 30
0.0
 10
6222.979482262429
 20
5258.43340829047
 30
0.0
 10
6222.982854714592
 20
5258.400615680238
 30
0.0
  0
LINE
  5
C5
330
1F
100
AcDbEntity
  8
0
  6
Continuous
 62
     7
370
    25
100
AcDbLine
 10
6222.9828547146
 20
5258.4006156802
 30
0.0
 11
6222.9828547146
 21
5257.0984928902
 31
0.0
  0
SPLINE
  5
C6
330
1F
100
AcDbEntity
  8
0
  6
Continuous
 62
     7
370
    25
100
AcDbSpline
210
0.0
220
0.0
230
1.0
 70
     8
 71
     3
 72
    11
 73
     7
 74
     0
 42
0.00000001
 43
0.00000001
 40
0.0
 40
0.0
 40
0.0
 40
0.0
 40
0.2833188256020627
 40
0.5580476851072209
 40
0.77543125332538
 40
1.0
 40
1.0
 40
1.0
 40
1.0
 10
6222.982854714592
 20
5257.098492890238
 30
0.0
 10
6222.977420060352
 20
5257.057015895662
 30
0.0
 10
6222.966715525589
 20
5256.975319450818
 30
0.0
 10
6222.892116340527
 20
5256.88469425429
 30
0.0
 10
6222.801192507242
 20
5256.829526827341
 30
0.0
 10
6222.736666111518
 20
5256.822889286573
 30
0.0
 10
6222.703878384592
 20
5256.819516560238
 30
0.0
  0
LINE
  5
C7
330
1F
100
AcDbEntity
  8
0
  6
Continuous
 62
     7
370
    25
100
AcDbLine
 10
6222.7038783846
 20
5256.8195165602
 30
0.0
 11
6218.4102310446
 21
5256.8195165602
 31
0.0
  0
SPLINE
  5
C8
330
1F
100
AcDbEntity
  8
0
  6
Continuous
 62
     7
370
    25
100
AcDbSpline
210
0.0
220
0.0
230
1.0
 70
     8
 71
     3
 72
    11
 73
     7
 74
     0
 42
0.00000001
 43
0.00000001
 40
0.0
 40
0.0
 40
0.0
 40
0.0
 40
0.283318825602046
 40
0.5580476851072128
 40
0.7754312533253653
 40
1.0
 40
1.0
 40
1.0
 40
1.0
 10
6212.345731044592
 20
5256.819516560238
 30
0.0
 10
6212.304254050015
 20
5256.824951214478
 30
0.0
 10
6212.222557605171
 20
5256.835655749241
 30
0.0
 10
6212.131932408644
 20
5256.910254934303
 30
0.0
 10
6212.076764981694
 20
5257.001178767588
 30
0.0
 10
6212.070127440927
 20
5257.065705163312
 30
0.0
 10
6212.066754714591
 20
5257.098492890238
 30
0.0
  0
LINE
  5
C9
330
1F
100
AcDbEntity
  8
0
  6
Continuous
 62
     7
370
    25
100
AcDbLine
 10
6212.0667547146
 20
5257.0984928902
 30
0.0
 11
6212.0667547146
 21
5258.4006156802
 31
0.0
  0
SPLINE
  5
CA
330
1F
100
AcDbEntity
  8
0
  6
Continuous
 62
     7
370
    25
100
AcDbSpline
210
0.0
220
0.0
230
1.0
 70
     8
 71
     3
 72
    11
 73
     7
 74
     0
 42
0.00000001
 43
0.00000001
 40
0.0
 40
0.0
 40
0.0
 40
0.0
 40
0.2833421469451673
 40
0.5580701052107029
 40
0.775443807628807
 40
1.0
 40
1.0
 40
1.0
 40
1.0
 10
6212.066754714591
 20
5258.400615680238
 30
0.0
 10
6212.072188811483
 20
5258.442098537538
 30
0.0
 10
6212.082891797455
 20
5258.523803087273
 30
0.0
 10
6212.157491021268
 20
5258.614439056723
 30
0.0
 10
6212.248416513166
 20
5258.669609657708
 30
0.0
 10
6212.312943292439
 20
5258.676247260061
 30
0.0
 10
6212.345731044592
 20
5258.679620000238
 30
0.0
  0
LINE
  5
CB
330
1F
100
AcDbEntity
  8
0
  6
Continuous
 62
     7
370
    25
100
AcDbLine
 10
6216.6393783846
 20
5256.8195165602
 30
0.0
 11
6212.3457310446
 21
5256.8195165602
 31
0.0
  0
LINE
  5
CC
330
1F
100
AcDbEntity
  8
0
  6
Continuous
 62
     7
370
    25
100
AcDbLine
 10
6212.3457310446
 20
5258.6796200002
 30
0.0
 11
6216.6393783846
 21
5258.6796200002
 31
0.0
  0
LINE
  5
CD
330
1F
100
AcDbEntity
  8
0
  6
Continuous
 62
     7
370
    25
100
AcDbLine
 10
6216.9183547146
 20
5258.4006156802
 30
0.0
 11
6216.9183547146
 21
5257.0984928902
 31
0.0
  0
SPLINE
  5
CE
330
1F
100
AcDbEntity
  8
0
  6
Continuous
 62
     7
370
    25
100
AcDbSpline
210
0.0
220
0.0
230
1.0
 70
     8
 71
     3
 72
    11
 73
     7
 74
     0
 42
0.00000001
 43
0.00000001
 40
0.0
 40
0.0
 40
0.0
 40
0.0
 40
0.2833031842701285
 40
0.5580226575521791
 40
0.7754106245611203
 40
1.0
 40
1.0
 40
1.0
 40
1.0
 10
6216.639378384592
 20
5258.679620000238
 30
0.0
 10
6216.680855476346
 20
5258.674185301489
 30
0.0
 10
6216.762552958948
 20
5258.663480568159
 30
0.0
 10
6216.853179205008
 20
5258.588875915896
 30
0.0
 10
6216.908345495031
 20
5258.497942023172
 30
0.0
 10
6216.914982262429
 20
5258.43340829047
 30
0.0
 10
6216.918354714591
 20
5258.400615680238
 30
0.0
  0
SPLINE
  5
CF
330
1F
100
AcDbEntity
  8
0
  6
Continuous
 62
     7
370
    25
100
AcDbSpline
210
0.0
220
0.0
230
1.0
 70
     8
 71
     3
 72
    11
 73
     7
 74
     0
 42
0.00000001
 43
0.00000001
 40
0.0
 40
0.0
 40
0.0
 40
0.0
 40
0.2833188256020604
 40
0.5580476851072164
 40
0.7754312533253818
 40
0.9999999999999999
 40
0.9999999999999999
 40
0.9999999999999999
 40
0.9999999999999999
 10
6216.918354714591
 20
5257.098492890238
 30
0.0
 10
6216.912920060352
 20
5257.057015895662
 30
0.0
 10
6216.90221552559
 20
5256.975319450818
 30
0.0
 10
6216.827616340526
 20
5256.88469425429
 30
0.0
 10
6216.736692507243
 20
5256.829526827341
 30
0.0
 10
6216.672166111518
 20
5256.822889286573
 30
0.0
 10
6216.639378384592
 20
5256.819516560238
 30
0.0
  0
LINE
  5
D0
330
1F
100
AcDbEntity
  8
0
  6
Continuous
 62
     7
370
    25
100
AcDbLine
 10
6199.9377547146
 20
5258.4006156802
 30
0.0
 11
6199.9377547146
 21
5257.0984928902
 31
0.0
  0
SPLINE
  5
D1
330
1F
100
AcDbEntity
  8
0
  6
Continuous
 62
     7
370
    25
100
AcDbSpline
210
0.0
220
0.0
230
1.0
 70
     8
 71
     3
 72
    11
 73
     7
 74
     0
 42
0.00000001
 43
0.00000001
 40
0.0
 40
0.0
 40
0.0
 40
0.0
 40
0.2833031842701244
 40
0.5580226575521963
 40
0.7754106245611265
 40
1.0
 40
1.0
 40
1.0
 40
1.0
 10
6200.216731044591
 20
5258.679620000238
 30
0.0
 10
6200.175253952837
 20
5258.674185301489
 30
0.0
 10
6200.093556470235
 20
5258.663480568159
 30
0.0
 10
6200.002930224176
 20
5258.588875915896
 30
0.0
 10
6199.947763934151
 20
5258.497942023172
 30
0.0
 10
6199.941127166754
 20
5258.43340829047
 30
0.0
 10
6199.937754714591
 20
5258.400615680238
 30
0.0
  0
LINE
  5
D2
330
1F
100
AcDbEntity
  8
0
  6
Continuous
 62
     7
370
    25
100
AcDbLine
 10
6204.5103783846
 20
5258.6796200002
 30
0.0
 11
6200.2167310446
 21
5258.6796200002
 31
0.0
  0
SPLINE
  5
D3
330
1F
100
AcDbEntity
  8
0
  6
Continuous
 62
     7
370
    25
100
AcDbSpline
210
0.0
220
0.0
230
1.0
 70
     8
 71
     3
 72
    11
 73
     7
 74
     0
 42
0.00000001
 43
0.00000001
 40
0.0
 40
0.0
 40
0.0
 40
0.0
 40
0.2833421469451743
 40
0.5580701052107133
 40
0.77544380762882
 40
1.0
 40
1.0
 40
1.0
 40
1.0
 10
6204.789354714592
 20
5258.400615680238
 30
0.0
 10
6204.7839206177
 20
5258.442098537538
 30
0.0
 10
6204.773217631728
 20
5258.523803087273
 30
0.0
 10
6204.698618407916
 20
5258.614439056723
 30
0.0
 10
6204.607692916017
 20
5258.669609657708
 30
0.0
 10
6204.543166136745
 20
5258.676247260061
 30
0.0
 10
6204.510378384592
 20
5258.679620000238
 30
0.0
  0
LINE
  5
D4
330
1F
100
AcDbEntity
  8
0
  6
Continuous
 62
     7
370
    25
100
AcDbLine
 10
6204.7893547146
 20
5257.0984928902
 30
0.0
 11
6204.7893547146
 21
5258.4006156802
 31
0.0
  0
SPLINE
  5
D5
330
1F
100
AcDbEntity
  8
0
  6
Continuous
 62
     7
370
    25
100
AcDbSpline
210
0.0
220
0.0
230
1.0
 70
     8
 71
     3
 72
    11
 73
     7
 74
     0
 42
0.00000001
 43
0.00000001
 40
0.0
 40
0.0
 40
0.0
 40
0.0
 40
0.2833188256020474
 40
0.5580476851072157
 40
0.7754312533253613
 40
0.9999999999999999
 40
0.9999999999999999
 40
0.9999999999999999
 40
0.9999999999999999
 10
6204.510378384592
 20
5256.819516560238
 30
0.0
 10
6204.551855379169
 20
5256.824951214478
 30
0.0
 10
6204.633551824012
 20
5256.835655749241
 30
0.0
 10
6204.724177020538
 20
5256.910254934303
 30
0.0
 10
6204.779344447488
 20
5257.001178767588
 30
0.0
 10
6204.785981988256
 20
5257.065705163312
 30
0.0
 10
6204.789354714592
 20
5257.098492890238
 30
0.0
  0
LINE
  5
D6
330
1F
100
AcDbEntity
  8
0
  6
Continuous
 62
     7
370
    25
100
AcDbLine
 10
6200.2167310446
 20
5256.8195165602
 30
0.0
 11
6204.5103783846
 21
5256.8195165602
 31
0.0
  0
SPLINE
  5
D7
330
1F
100
AcDbEntity
  8
0
  6
Continuous
 62
     7
370
    25
100
AcDbSpline
210
0.0
220
0.0
230
1.0
 70
     8
 71
     3
 72
    11
 73
     7
 74
     0
 42
0.00000001
 43
0.00000001
 40
0.0
 40
0.0
 40
0.0
 40
0.0
 40
0.2833188256020608
 40
0.5580476851072137
 40
0.7754312533253687
 40
1.0
 40
1.0
 40
1.0
 40
1.0
 10
6199.937754714591
 20
5257.098492890238
 30
0.0
 10
6199.943189368831
 20
5257.057015895662
 30
0.0
 10
6199.953893903594
 20
5256.975319450818
 30
0.0
 10
6200.028493088656
 20
5256.88469425429
 30
0.0
 10
6200.119416921941
 20
5256.829526827341
 30
0.0
 10
6200.183943317665
 20
5256.822889286573
 30
0.0
 10
6200.216731044591
 20
5256.819516560238
 30
0.0
  0
LINE
  5
D8
330
1F
100
AcDbEntity
  8
0
  6
Continuous
 62
     7
370
    25
100
AcDbLine
 10
6206.0022547146
 20
5258.4006156802
 30
0.0
 11
6206.0022547146
 21
5257.0984928902
 31
0.0
  0
SPLINE
  5
D9
330
1F
100
AcDbEntity
  8
0
  6
Continuous
 62
     7
370
    25
100
AcDbSpline
210
0.0
220
0.0
230
1.0
 70
     8
 71
     3
 72
    11
 73
     7
 74
     0
 42
0.00000001
 43
0.00000001
 40
0.0
 40
0.0
 40
0.0
 40
0.0
 40
0.2833031842701315
 40
0.5580226575521852
 40
0.7754106245611209
 40
1.0
 40
1.0
 40
1.0
 40
1.0
 10
6206.281231044592
 20
5258.679620000238
 30
0.0
 10
6206.239753952837
 20
5258.674185301489
 30
0.0
 10
6206.158056470235
 20
5258.663480568159
 30
0.0
 10
6206.067430224175
 20
5258.588875915896
 30
0.0
 10
6206.012263934152
 20
5258.497942023172
 30
0.0
 10
6206.005627166754
 20
5258.43340829047
 30
0.0
 10
6206.002254714592
 20
5258.400615680238
 30
0.0
  0
LINE
  5
DA
330
1F
100
AcDbEntity
  8
0
  6
Continuous
 62
     7
370
    25
100
AcDbLine
 10
6206.2812310446
 20
5256.8195165602
 30
0.0
 11
6210.5748783846
 21
5256.8195165602
 31
0.0
  0
SPLINE
  5
DB
330
1F
100
AcDbEntity
  8
0
  6
Continuous
 62
     7
370
    25
100
AcDbSpline
210
0.0
220
0.0
230
1.0
 70
     8
 71
     3
 72
    11
 73
     7
 74
     0
 42
0.00000001
 43
0.00000001
 40
0.0
 40
0.0
 40
0.0
 40
0.0
 40
0.2833188256020674
 40
0.5580476851072267
 40
0.7754312533253948
 40
0.9999999999999999
 40
0.9999999999999999
 40
0.9999999999999999
 40
0.9999999999999999
 10
6206.002254714592
 20
5257.098492890238
 30
0.0
 10
6206.007689368831
 20
5257.057015895662
 30
0.0
 10
6206.018393903593
 20
5256.975319450818
 30
0.0
 10
6206.092993088657
 20
5256.88469425429
 30
0.0
 10
6206.183916921941
 20
5256.829526827341
 30
0.0
 10
6206.248443317665
 20
5256.822889286573
 30
0.0
 10
6206.281231044592
 20
5256.819516560238
 30
0.0
  0
LINE
  5
DC
330
1F
100
AcDbEntity
  8
0
  6
Continuous
 62
     7
370
    25
100
AcDbLine
 10
6210.8538547146
 20
5257.0984928902
 30
0.0
 11
6210.8538547146
 21
5258.4006156802
 31
0.0
  0
LINE
  5
DD
330
1F
100
AcDbEntity
  8
0
  6
Continuous
 62
     7
370
    25
100
AcDbLine
 10
6210.5748783846
 20
5258.6796200002
 30
0.0
 11
6206.2812310446
 21
5258.6796200002
 31
0.0
  0
SPLINE
  5
DE
330
1F
100
AcDbEntity
  8
0
  6
Continuous
 62
     7
370
    25
100
AcDbSpline
210
0.0
220
0.0
230
1.0
 70
     8
 71
     3
 72
    11
 73
     7
 74
     0
 42
0.00000001
 43
0.00000001
 40
0.0
 40
0.0
 40
0.0
 40
0.0
 40
0.2833188256020474
 40
0.5580476851072157
 40
0.7754312533253613
 40
0.9999999999999999
 40
0.9999999999999999
 40
0.9999999999999999
 40
0.9999999999999999
 10
6210.574878384592
 20
5256.819516560238
 30
0.0
 10
6210.616355379168
 20
5256.824951214478
 30
0.0
 10
6210.698051824013
 20
5256.835655749241
 30
0.0
 10
6210.788677020539
 20
5256.910254934303
 30
0.0
 10
6210.843844447489
 20
5257.001178767588
 30
0.0
 10
6210.850481988256
 20
5257.065705163312
 30
0.0
 10
6210.853854714592
 20
5257.098492890238
 30
0.0
  0
SPLINE
  5
DF
330
1F
100
AcDbEntity
  8
0
  6
Continuous
 62
     7
370
    25
100
AcDbSpline
210
0.0
220
0.0
230
1.0
 70
     8
 71
     3
 72
    11
 73
     7
 74
     0
 42
0.00000001
 43
0.00000001
 40
0.0
 40
0.0
 40
0.0
 40
0.0
 40
0.2833421469451743
 40
0.5580701052107133
 40
0.77544380762882
 40
1.0
 40
1.0
 40
1.0
 40
1.0
 10
6210.853854714592
 20
5258.400615680238
 30
0.0
 10
6210.8484206177
 20
5258.442098537538
 30
0.0
 10
6210.837717631728
 20
5258.523803087273
 30
0.0
 10
6210.763118407915
 20
5258.614439056723
 30
0.0
 10
6210.672192916017
 20
5258.669609657708
 30
0.0
 10
6210.607666136744
 20
5258.676247260061
 30
0.0
 10
6210.574878384592
 20
5258.679620000238
 30
0.0
  0
LINE
  5
E0
330
1F
100
AcDbEntity
  8
0
  6
Continuous
 62
     7
370
    25
100
AcDbLine
 10
6208.9411677264
 20
5260.5955448302
 30
0.0
 11
6208.9411677264
 21
5259.9405974902
 31
0.0
  0
SPLINE
  5
E1
330
1F
100
AcDbEntity
  8
0
  6
Continuous
 62
     7
370
    25
100
AcDbSpline
210
0.0
220
0.0
230
1.0
 70
     8
 71
     3
 72
    11
 73
     7
 74
     0
 42
0.00000001
 43
0.00000001
 40
0.0
 40
0.0
 40
0.0
 40
0.0
 40
0.2833188256020519
 40
0.5580476851072246
 40
0.7754312533253737
 40
1.0
 40
1.0
 40
1.0
 40
1.0
 10
6209.220144056398
 20
5260.874521160238
 30
0.0
 10
6209.178667061821
 20
5260.869086505999
 30
0.0
 10
6209.096970616978
 20
5260.858381971237
 30
0.0
 10
6209.006345420451
 20
5260.783782786174
 30
0.0
 10
6208.951177993502
 20
5260.692858952889
 30
0.0
 10
6208.944540452734
 20
5260.628332557165
 30
0.0
 10
6208.941167726399
 20
5260.595544830238
 30
0.0
  0
LINE
  5
E2
330
1F
100
AcDbEntity
  8
0
  6
Continuous
 62
     7
370
    25
100
AcDbLine
 10
6213.9309730164
 20
5259.9405974902
 30
0.0
 11
6213.9309730164
 21
5260.5955448302
 31
0.0
  0
SPLINE
  5
E3
330
1F
100
AcDbEntity
  8
0
  6
Continuous
 62
     7
370
    25
100
AcDbSpline
210
0.0
220
0.0
230
1.0
 70
     8
 71
     3
 72
    11
 73
     7
 74
     0
 42
0.00000001
 43
0.00000001
 40
0.0
 40
0.0
 40
0.0
 40
0.0
 40
0.2833188256020674
 40
0.5580476851072267
 40
0.7754312533253948
 40
0.9999999999999999
 40
0.9999999999999999
 40
0.9999999999999999
 40
0.9999999999999999
 10
6208.941167726399
 20
5259.940597490238
 30
0.0
 10
6208.946602380638
 20
5259.899120495661
 30
0.0
 10
6208.9573069154
 20
5259.817424050818
 30
0.0
 10
6209.031906100464
 20
5259.726798854291
 30
0.0
 10
6209.122829933747
 20
5259.671631427342
 30
0.0
 10
6209.187356329472
 20
5259.664993886573
 30
0.0
 10
6209.220144056398
 20
5259.661621160239
 30
0.0
  0
SPLINE
  5
E4
330
1F
100
AcDbEntity
  8
0
  6
Continuous
 62
     7
370
    25
100
AcDbSpline
210
0.0
220
0.0
230
1.0
 70
     8
 71
     3
 72
    11
 73
     7
 74
     0
 42
0.00000001
 43
0.00000001
 40
0.0
 40
0.0
 40
0.0
 40
0.0
 40
0.2832955016718489
 40
0.5580252627618366
 40
0.7754186977908396
 40
1.0
 40
1.0
 40
1.0
 40
1.0
 10
6213.652024676398
 20
5259.661621160239
 30
0.0
 10
6213.693495808198
 20
5259.667056371907
 30
0.0
 10
6213.775184148051
 20
5259.677762455844
 30
0.0
 10
6213.865798571594
 20
5259.752361601732
 30
0.0
 10
6213.920962824734
 20
5259.843283776329
 30
0.0
 10
6213.927600303909
 20
5259.907809788531
 30
0.0
 10
6213.930973016399
 20
5259.940597490238
 30
0.0
  0
LINE
  5
E5
330
1F
100
AcDbEntity
  8
0
  6
Continuous
 62
     7
370
    25
100
AcDbLine
 10
6209.2201440564
 20
5259.6616211602
 30
0.0
 11
6213.6520246764
 21
5259.6616211602
 31
0.0
  0
SPLINE
  5
E6
330
1F
100
AcDbEntity
  8
0
  6
Continuous
 62
     7
370
    25
100
AcDbSpline
210
0.0
220
0.0
230
1.0
 70
     8
 71
     3
 72
    11
 73
     7
 74
     0
 42
0.00000001
 43
0.00000001
 40
0.0
 40
0.0
 40
0.0
 40
0.0
 40
0.2833344684722925
 40
0.5580727152555621
 40
0.775451884438291
 40
1.0
 40
1.0
 40
1.0
 40
1.0
 10
6213.930973016399
 20
5260.595544830238
 30
0.0
 10
6213.925538406665
 20
5260.637021727654
 30
0.0
 10
6213.914834070454
 20
5260.718717134802
 30
0.0
 10
6213.840240352333
 20
5260.809341281528
 30
0.0
 10
6213.749326578747
 20
5260.864509845284
 30
0.0
 10
6213.684807520001
 20
5260.871148159665
 30
0.0
 10
6213.652024676398
 20
5260.874521160238
 30
0.0
  0
LINE
  5
E7
330
1F
100
AcDbEntity
  8
0
  6
Continuous
 62
     7
370
    25
100
AcDbLine
 10
6213.6520246764
 20
5260.8745211602
 30
0.0
 11
6209.2201440564
 21
5260.8745211602
 31
0.0
  0
LINE
  5
E8
330
1F
100
AcDbEntity
  8
0
  6
Continuous
 62
     7
370
    25
100
AcDbLine
 10
6199.9359450264
 20
5262.8595253102
 30
0.0
 11
6199.9359450264
 21
5262.2045779702
 31
0.0
  0
SPLINE
  5
E9
330
1F
100
AcDbEntity
  8
0
  6
Continuous
 62
     7
370
    25
100
AcDbSpline
210
0.0
220
0.0
230
1.0
 70
     8
 71
     3
 72
    11
 73
     7
 74
     0
 42
0.00000001
 43
0.00000001
 40
0.0
 40
0.0
 40
0.0
 40
0.0
 40
0.2833188256020533
 40
0.5580476851072141
 40
0.7754312533253752
 40
1.0
 40
1.0
 40
1.0
 40
1.0
 10
6200.214921356398
 20
5263.138501640238
 30
0.0
 10
6200.173444361822
 20
5263.133066985999
 30
0.0
 10
6200.091747916978
 20
5263.122362451236
 30
0.0
 10
6200.001122720451
 20
5263.047763266173
 30
0.0
 10
6199.945955293501
 20
5262.956839432889
 30
0.0
 10
6199.939317752733
 20
5262.892313037165
 30
0.0
 10
6199.935945026398
 20
5262.859525310238
 30
0.0
  0
LINE
  5
EA
330
1F
100
AcDbEntity
  8
0
  6
Continuous
 62
     7
370
    25
100
AcDbLine
 10
6209.0460462564
 20
5263.1385016402
 30
0.0
 11
6200.2149213564
 21
5263.1385016402
 31
0.0
  0
SPLINE
  5
EB
330
1F
100
AcDbEntity
  8
0
  6
Continuous
 62
     7
370
    25
100
AcDbSpline
210
0.0
220
0.0
230
1.0
 70
     8
 71
     3
 72
    11
 73
     7
 74
     0
 42
0.00000001
 43
0.00000001
 40
0.0
 40
0.0
 40
0.0
 40
0.0
 40
0.2833188256020697
 40
0.5580476851072312
 40
0.7754312533253931
 40
1.0
 40
1.0
 40
1.0
 40
1.0
 10
6209.325022586399
 20
5262.859525310238
 30
0.0
 10
6209.319587932158
 20
5262.901002304815
 30
0.0
 10
6209.308883397396
 20
5262.982698749659
 30
0.0
 10
6209.234284212333
 20
5263.073323946185
 30
0.0
 10
6209.143360379049
 20
5263.128491373135
 30
0.0
 10
6209.078833983325
 20
5263.135128913903
 30
0.0
 10
6209.046046256399
 20
5263.138501640238
 30
0.0
  0
SPLINE
  5
EC
330
1F
100
AcDbEntity
  8
0
  6
Continuous
 62
     7
370
    25
100
AcDbSpline
210
0.0
220
0.0
230
1.0
 70
     8
 71
     3
 72
    11
 73
     7
 74
     0
 42
0.00000001
 43
0.00000001
 40
0.0
 40
0.0
 40
0.0
 40
0.0
 40
0.2833188256020519
 40
0.5580476851072246
 40
0.7754312533253737
 40
1.0
 40
1.0
 40
1.0
 40
1.0
 10
6209.046046256399
 20
5261.925601640238
 30
0.0
 10
6209.087523250975
 20
5261.931036294477
 30
0.0
 10
6209.169219695819
 20
5261.94174082924
 30
0.0
 10
6209.259844892345
 20
5262.016340014303
 30
0.0
 10
6209.315012319295
 20
5262.107263847588
 30
0.0
 10
6209.321649860063
 20
5262.171790243312
 30
0.0
 10
6209.325022586399
 20
5262.204577970238
 30
0.0
  0
SPLINE
  5
ED
330
1F
100
AcDbEntity
  8
0
  6
Continuous
 62
     7
370
    25
100
AcDbSpline
210
0.0
220
0.0
230
1.0
 70
     8
 71
     3
 72
    11
 73
     7
 74
     0
 42
0.00000001
 43
0.00000001
 40
0.0
 40
0.0
 40
0.0
 40
0.0
 40
0.2833188256020562
 40
0.5580476851072198
 40
0.7754312533253913
 40
1.0
 40
1.0
 40
1.0
 40
1.0
 10
6199.935945026398
 20
5262.204577970238
 30
0.0
 10
6199.941379680638
 20
5262.163100975661
 30
0.0
 10
6199.952084215401
 20
5262.081404530818
 30
0.0
 10
6200.026683400463
 20
5261.990779334291
 30
0.0
 10
6200.117607233748
 20
5261.935611907342
 30
0.0
 10
6200.182133629472
 20
5261.928974366573
 30
0.0
 10
6200.214921356398
 20
5261.925601640238
 30
0.0
  0
LINE
  5
EE
330
1F
100
AcDbEntity
  8
0
  6
Continuous
 62
     7
370
    25
100
AcDbLine
 10
6200.2149213564
 20
5261.9256016402
 30
0.0
 11
6209.0460462564
 21
5261.9256016402
 31
0.0
  0
LINE
  5
EF
330
1F
100
AcDbEntity
  8
0
  6
Continuous
 62
     7
370
    25
100
AcDbLine
 10
6209.3250225864
 20
5262.2045779702
 30
0.0
 11
6209.3250225864
 21
5262.8595253102
 31
0.0
  0
ARC
  5
F0
330
1F
100
AcDbEntity
  8
0
  6
Continuous
 62
     7
370
    25
100
AcDbCircle
 10
6218.6696083056
 20
5251.5344545928
 30
0.0
 40
0.8000000000002011
100
AcDbArc
 50
320.0385087682
 51
39.9614912319
  0
ARC
  5
F1
330
1F
100
AcDbEntity
  8
0
  6
Continuous
 62
     7
370
    25
100
AcDbCircle
 10
6218.6696083056
 20
5251.5344545928
 30
0.0
 40
1.200000000000594
100
AcDbArc
 50
320.0385087682
 51
39.9614912319
  0
ARC
  5
F2
330
1F
100
AcDbEntity
  8
0
  6
Continuous
 62
     7
370
    25
100
AcDbCircle
 10
6219.4360845963
 20
5252.1767271952
 30
0.0
 40
0.2000000000011855
100
AcDbArc
 50
39.9614912318
 51
219.961491232
  0
ARC
  5
F3
330
1F
100
AcDbEntity
  8
0
  6
Continuous
 62
     7
370
    25
100
AcDbCircle
 10
6219.4360845963
 20
5250.8921819904
 30
0.0
 40
0.2000000000006013
100
AcDbArc
 50
140.0385087678
 51
320.0385087684
  0
ARC
  5
F4
330
1F
100
AcDbEntity
  8
0
  6
Continuous
 62
     7
370
    25
100
AcDbCircle
 10
6220.1891171364
 20
5252.4993861516
 30
0.0
 40
0.2000000000002516
100
AcDbArc
 50
32.4167149172
 51
212.4167149173
  0
ARC
  5
F5
330
1F
100
AcDbEntity
  8
0
  6
Continuous
 62
     7
370
    25
100
AcDbCircle
 10
6218.6696083056
 20
5251.5344545928
 30
0.0
 40
1.999999999999726
100
AcDbArc
 50
327.5832850828
 51
32.4167149172
  0
ARC
  5
F6
330
1F
100
AcDbEntity
  8
0
  6
Continuous
 62
     7
370
    25
100
AcDbCircle
 10
6220.1891171364
 20
5250.5695230339
 30
0.0
 40
0.2000000000002516
100
AcDbArc
 50
147.5832850827
 51
327.5832850828
  0
ARC
  5
F7
330
1F
100
AcDbEntity
  8
0
  6
Continuous
 62
     7
370
    25
100
AcDbCircle
 10
6218.6696083056
 20
5251.5344545928
 30
0.0
 40
1.59999999999999
100
AcDbArc
 50
327.5832850828
 51
32.4167149172
  0
ARC
  5
F8
330
1F
100
AcDbEntity
  8
0
  6
Continuous
 62
     7
370
    25
100
AcDbCircle
 10
6220.9227072667
 20
5252.8319695527
 30
0.0
 40
0.2000000000003499
100
AcDbArc
 50
29.9367859187
 51
209.9367859186
  0
ARC
  5
F9
330
1F
100
AcDbEntity
  8
0
  6
Continuous
 62
     7
370
    25
100
AcDbCircle
 10
6220.9227072667
 20
5250.2369396328
 30
0.0
 40
0.199999999999896
100
AcDbArc
 50
150.0632140812
 51
330.0632140816
  0
ARC
  5
FA
330
1F
100
AcDbEntity
  8
0
  6
Continuous
 62
     7
370
    25
100
AcDbCircle
 10
6218.6696083056
 20
5251.5344545928
 30
0.0
 40
2.400000000000138
100
AcDbArc
 50
330.0632140814
 51
29.9367859187
  0
ARC
  5
FB
330
1F
100
AcDbEntity
  8
0
  6
Continuous
 62
     7
370
    25
100
AcDbCircle
 10
6218.6696083056
 20
5251.5344545928
 30
0.0
 40
2.799999999999596
100
AcDbArc
 50
330.0632140814
 51
29.9367859187
  0
ARC
  5
FC
330
1F
100
AcDbEntity
  8
0
  6
Continuous
 62
     7
370
    25
100
AcDbCircle
 10
6221.6518886752
 20
5253.1672447804
 30
0.0
 40
0.2000000000009689
100
AcDbArc
 50
28.7005820533
 51
208.7005820538
  0
ARC
  5
FD
330
1F
100
AcDbEntity
  8
0
  6
Continuous
 62
     7
370
    25
100
AcDbCircle
 10
6221.6518886752
 20
5249.9016644051
 30
0.0
 40
0.2000000000009689
100
AcDbArc
 50
151.299417946
 51
331.2994179467
  0
ARC
  5
FE
330
1F
100
AcDbEntity
  8
0
  6
Continuous
 62
     7
370
    25
100
AcDbCircle
 10
6218.6696083056
 20
5251.5344545928
 30
0.0
 40
3.199999999999641
100
AcDbArc
 50
331.2994179463
 51
28.7005820537
  0
ARC
  5
FF
330
1F
100
AcDbEntity
  8
0
  6
Continuous
 62
     7
370
    25
100
AcDbCircle
 10
6218.6696083056
 20
5251.5344545928
 30
0.0
 40
3.600000000000421
100
AcDbArc
 50
331.2994179463
 51
28.7005820537
  0
ARC
  5
100
330
1F
100
AcDbEntity
  8
0
  6
Continuous
 62
     7
370
    25
100
AcDbCircle
 10
6317.6916493258
 20
5153.5994545928
 30
0.0
 40
0.4499999999998181
100
AcDbArc
 50
270.0
 51
8.4408894415
  0
ARC
  5
101
330
1F
100
AcDbEntity
  8
0
  6
Continuous
 62
     7
370
    25
100
AcDbCircle
 10
6317.6916493258
 20
5153.5994545928
 30
0.0
 40
0.4500000000007793
100
AcDbArc
 50
188.4408894413
 51
270.0
  0
ARC
  5
102
330
1F
100
AcDbEntity
  8
0
  6
Continuous
 62
     7
370
    25
100
AcDbCircle
 10
6301.5187553361
 20
5151.1994545928
 30
0.0
 40
15.9
100
AcDbArc
 50
8.4408894413
 51
81.5591105586
  0
ARC
  5
103
330
1F
100
AcDbEntity
  8
0
  6
Continuous
 62
     7
370
    25
100
AcDbCircle
 10
6303.9187553361
 20
5167.3723485824
 30
0.0
 40
0.4500000000006458
100
AcDbArc
 50
180.0
 51
261.5591105588
  0
ARC
  5
104
330
1F
100
AcDbEntity
  8
0
  6
Continuous
 62
     7
370
    25
100
AcDbCircle
 10
6303.9187553361
 20
5167.3723485824
 30
0.0
 40
0.4499999999998181
100
AcDbArc
 50
81.5591105585
 51
180.0
  0
ARC
  5
105
330
1F
100
AcDbEntity
  8
0
  6
Continuous
 62
     7
370
    25
100
AcDbCircle
 10
6301.5187553361
 20
5151.1994545928
 30
0.0
 40
16.79999999999976
100
AcDbArc
 50
8.4408894414
 51
81.5591105586
  0
ARC
  5
106
330
1F
100
AcDbEntity
  8
0
  6
Continuous
 62
     7
370
    25
100
AcDbCircle
 10
6290.9887980713
 20
5153.5994545928
 30
0.0
 40
0.4500000000008567
100
AcDbArc
 50
270.0
 51
347.1604115932
  0
ARC
  5
107
330
1F
100
AcDbEntity
  8
0
  6
Continuous
 62
     7
370
    25
100
AcDbCircle
 10
6301.5187553361
 20
5151.1994545928
 30
0.0
 40
11.24999999999962
100
AcDbArc
 50
102.8395884069
 51
167.1604115931
  0
ARC
  5
108
330
1F
100
AcDbEntity
  8
0
  6
Continuous
 62
     7
370
    25
100
AcDbCircle
 10
6299.1187553361
 20
5161.7294118576
 30
0.0
 40
0.4499999999998181
100
AcDbArc
 50
0.0
 51
102.839588407
  0
ARC
  5
109
330
1F
100
AcDbEntity
  8
0
  6
Continuous
 62
     7
370
    25
100
AcDbCircle
 10
6299.1187553361
 20
5161.7294118576
 30
0.0
 40
0.450000000000172
100
AcDbArc
 50
282.8395884069
 51
0.0
  0
ARC
  5
10A
330
1F
100
AcDbEntity
  8
0
  6
Continuous
 62
     7
370
    25
100
AcDbCircle
 10
6301.5187553361
 20
5151.1994545928
 30
0.0
 40
10.35000000000016
100
AcDbArc
 50
102.8395884069
 51
167.1604115931
  0
ARC
  5
10B
330
1F
100
AcDbEntity
  8
0
  6
Continuous
 62
     7
370
    25
100
AcDbCircle
 10
6290.9887980713
 20
5153.5994545928
 30
0.0
 40
0.4499999999998181
100
AcDbArc
 50
167.160411593
 51
270.0
  0
ARC
  5
10C
330
1F
100
AcDbEntity
  8
0
  6
Continuous
 62
     7
370
    25
100
AcDbCircle
 10
6301.5187553361
 20
5151.1994545928
 30
0.0
 40
15.9
100
AcDbArc
 50
278.4408894414
 51
351.5591105587
  0
ARC
  5
10D
330
1F
100
AcDbEntity
  8
0
  6
Continuous
 62
     7
370
    25
100
AcDbCircle
 10
6317.6916493258
 20
5148.7994545928
 30
0.0
 40
0.4500000000007793
100
AcDbArc
 50
90.0
 51
171.5591105587
  0
ARC
  5
10E
330
1F
100
AcDbEntity
  8
0
  6
Continuous
 62
     7
370
    25
100
AcDbCircle
 10
6317.6916493258
 20
5148.7994545928
 30
0.0
 40
0.4499999999998181
100
AcDbArc
 50
351.5591105586
 51
90.0
  0
ARC
  5
10F
330
1F
100
AcDbEntity
  8
0
  6
Continuous
 62
     7
370
    25
100
AcDbCircle
 10
6301.5187553361
 20
5151.1994545928
 30
0.0
 40
16.79999999999976
100
AcDbArc
 50
278.4408894414
 51
351.5591105587
  0
ARC
  5
110
330
1F
100
AcDbEntity
  8
0
  6
Continuous
 62
     7
370
    25
100
AcDbCircle
 10
6303.9187553361
 20
5135.0265606031
 30
0.0
 40
0.4499999999998181
100
AcDbArc
 50
180.0
 51
278.4408894415
  0
ARC
  5
111
330
1F
100
AcDbEntity
  8
0
  6
Continuous
 62
     7
370
    25
100
AcDbCircle
 10
6303.9187553361
 20
5135.0265606031
 30
0.0
 40
0.4500000000006458
100
AcDbArc
 50
98.4408894412
 51
180.0
  0
LINE
  5
112
330
1F
100
AcDbEntity
  8
0
  6
Continuous
 62
     7
370
    25
100
AcDbLine
 10
6301.0687553361
 20
5132.8994545928
 30
0.0
 11
6301.0687553361
 21
5145.0494545928
 31
0.0
  0
ARC
  5
113
330
1F
100
AcDbEntity
  8
0
  6
Continuous
 62
     7
370
    25
100
AcDbCircle
 10
6301.5187553361
 20
5145.0494545928
 30
0.0
 40
0.4499999999998181
100
AcDbArc
 50
90.0
 51
180.0
  0
LINE
  5
114
330
1F
100
AcDbEntity
  8
0
  6
Continuous
 62
     7
370
    25
100
AcDbLine
 10
6301.9687553361
 20
5132.8994545928
 30
0.0
 11
6301.9687553361
 21
5145.0494545928
 31
0.0
  0
ARC
  5
115
330
1F
100
AcDbEntity
  8
0
  6
Continuous
 62
     7
370
    25
100
AcDbCircle
 10
6301.5187553361
 20
5132.8994545928
 30
0.0
 40
0.4499999999998181
100
AcDbArc
 50
270.0
 51
0.0
  0
ARC
  5
116
330
1F
100
AcDbEntity
  8
0
  6
Continuous
 62
     7
370
    25
100
AcDbCircle
 10
6301.5187553361
 20
5132.8994545928
 30
0.0
 40
0.4499999999998181
100
AcDbArc
 50
180.0
 51
270.0
  0
ARC
  5
117
330
1F
100
AcDbEntity
  8
0
  6
Continuous
 62
     7
370
    25
100
AcDbCircle
 10
6301.5187553361
 20
5145.0494545928
 30
0.0
 40
0.4499999999998181
100
AcDbArc
 50
0.0
 51
90.0
  0
LINE
  5
118
330
1F
100
AcDbEntity
  8
0
  6
Continuous
 62
     7
370
    25
100
AcDbLine
 10
6295.3687553361
 20
5151.6494545928
 30
0.0
 11
6283.2187553361
 21
5151.6494545928
 31
0.0
  0
ARC
  5
119
330
1F
100
AcDbEntity
  8
0
  6
Continuous
 62
     7
370
    25
100
AcDbCircle
 10
6295.3687553361
 20
5151.1994545928
 30
0.0
 40
0.4499999999998181
100
AcDbArc
 50
0.0
 51
90.0
  0
ARC
  5
11A
330
1F
100
AcDbEntity
  8
0
  6
Continuous
 62
     7
370
    25
100
AcDbCircle
 10
6295.3687553361
 20
5151.1994545928
 30
0.0
 40
0.4499999999998181
100
AcDbArc
 50
270.0
 51
0.0
  0
LINE
  5
11B
330
1F
100
AcDbEntity
  8
0
  6
Continuous
 62
     7
370
    25
100
AcDbLine
 10
6295.3687553361
 20
5150.7494545928
 30
0.0
 11
6283.2187553361
 21
5150.7494545928
 31
0.0
  0
ARC
  5
11C
330
1F
100
AcDbEntity
  8
0
  6
Continuous
 62
     7
370
    25
100
AcDbCircle
 10
6283.2187553361
 20
5151.1994545928
 30
0.0
 40
0.4500000000007276
100
AcDbArc
 50
180.0
 51
270.0
  0
ARC
  5
11D
330
1F
100
AcDbEntity
  8
0
  6
Continuous
 62
     7
370
    25
100
AcDbCircle
 10
6283.2187553361
 20
5151.1994545928
 30
0.0
 40
0.4500000000007276
100
AcDbArc
 50
90.0
 51
180.0
  0
ARC
  5
11E
330
1F
100
AcDbEntity
  8
0
  6
Continuous
 62
     7
370
    25
100
AcDbCircle
 10
6290.9887980713
 20
5148.7994545928
 30
0.0
 40
0.4499999999998181
100
AcDbArc
 50
90.0
 51
192.8395884069
  0
ARC
  5
11F
330
1F
100
AcDbEntity
  8
0
  6
Continuous
 62
     7
370
    25
100
AcDbCircle
 10
6290.9887980713
 20
5148.7994545928
 30
0.0
 40
0.4500000000008567
100
AcDbArc
 50
12.8395884068
 51
90.0
  0
ARC
  5
120
330
1F
100
AcDbEntity
  8
0
  6
Continuous
 62
     7
370
    25
100
AcDbCircle
 10
6299.1187553361
 20
5140.6694973279
 30
0.0
 40
0.4499999999998181
100
AcDbArc
 50
0.0
 51
77.160411593
  0
ARC
  5
121
330
1F
100
AcDbEntity
  8
0
  6
Continuous
 62
     7
370
    25
100
AcDbCircle
 10
6299.1187553361
 20
5140.6694973279
 30
0.0
 40
0.450000000000172
100
AcDbArc
 50
257.1604115931
 51
0.0
  0
ARC
  5
122
330
1F
100
AcDbEntity
  8
0
  6
Continuous
 62
     7
370
    25
100
AcDbCircle
 10
6301.5187553361
 20
5151.1994545928
 30
0.0
 40
11.24999999999962
100
AcDbArc
 50
192.8395884069
 51
257.1604115931
  0
ARC
  5
123
330
1F
100
AcDbEntity
  8
0
  6
Continuous
 62
     7
370
    25
100
AcDbCircle
 10
6301.5187553361
 20
5151.1994545928
 30
0.0
 40
10.35000000000016
100
AcDbArc
 50
192.8395884069
 51
257.1604115931
  0
LINE
  5
124
330
1F
100
AcDbEntity
  8
0
  6
Continuous
 62
     7
370
    25
100
AcDbLine
 10
6301.0687553361
 20
5157.3494545928
 30
0.0
 11
6301.0687553361
 21
5169.4994545928
 31
0.0
  0
ARC
  5
125
330
1F
100
AcDbEntity
  8
0
  6
Continuous
 62
     7
370
    25
100
AcDbCircle
 10
6301.5187553361
 20
5169.4994545928
 30
0.0
 40
0.4499999999998181
100
AcDbArc
 50
0.0
 51
90.0
  0
LINE
  5
126
330
1F
100
AcDbEntity
  8
0
  6
Continuous
 62
     7
370
    25
100
AcDbLine
 10
6301.9687553361
 20
5157.3494545928
 30
0.0
 11
6301.9687553361
 21
5169.4994545928
 31
0.0
  0
ARC
  5
127
330
1F
100
AcDbEntity
  8
0
  6
Continuous
 62
     7
370
    25
100
AcDbCircle
 10
6301.5187553361
 20
5157.3494545928
 30
0.0
 40
0.4499999999998181
100
AcDbArc
 50
180.0
 51
270.0
  0
ARC
  5
128
330
1F
100
AcDbEntity
  8
0
  6
Continuous
 62
     7
370
    25
100
AcDbCircle
 10
6301.5187553361
 20
5157.3494545928
 30
0.0
 40
0.4499999999998181
100
AcDbArc
 50
270.0
 51
0.0
  0
ARC
  5
129
330
1F
100
AcDbEntity
  8
0
  6
Continuous
 62
     7
370
    25
100
AcDbCircle
 10
6301.5187553361
 20
5169.4994545928
 30
0.0
 40
0.4499999999998181
100
AcDbArc
 50
90.0
 51
180.0
  0
ARC
  5
12A
330
1F
100
AcDbEntity
  8
0
  6
Continuous
 62
     7
370
    25
100
AcDbCircle
 10
6312.048712601
 20
5153.5994545928
 30
0.0
 40
0.450000000000172
100
AcDbArc
 50
270.0
 51
12.8395884069
  0
ARC
  5
12B
330
1F
100
AcDbEntity
  8
0
  6
Continuous
 62
     7
370
    25
100
AcDbCircle
 10
6312.048712601
 20
5153.5994545928
 30
0.0
 40
0.4499999999999699
100
AcDbArc
 50
192.8395884068
 51
270.0
  0
ARC
  5
12C
330
1F
100
AcDbEntity
  8
0
  6
Continuous
 62
     7
370
    25
100
AcDbCircle
 10
6301.5187553361
 20
5151.1994545928
 30
0.0
 40
10.35000000000036
100
AcDbArc
 50
12.8395884069
 51
77.1604115931
  0
ARC
  5
12D
330
1F
100
AcDbEntity
  8
0
  6
Continuous
 62
     7
370
    25
100
AcDbCircle
 10
6303.9187553361
 20
5161.7294118576
 30
0.0
 40
0.4499999999999699
100
AcDbArc
 50
180.0
 51
257.1604115932
  0
ARC
  5
12E
330
1F
100
AcDbEntity
  8
0
  6
Continuous
 62
     7
370
    25
100
AcDbCircle
 10
6303.9187553361
 20
5161.7294118576
 30
0.0
 40
0.4499999999998181
100
AcDbArc
 50
77.1604115929
 51
180.0
  0
ARC
  5
12F
330
1F
100
AcDbEntity
  8
0
  6
Continuous
 62
     7
370
    25
100
AcDbCircle
 10
6301.5187553361
 20
5151.1994545928
 30
0.0
 40
11.25000000000051
100
AcDbArc
 50
12.8395884069
 51
77.1604115931
  0
ARC
  5
130
330
1F
100
AcDbEntity
  8
0
  6
Continuous
 62
     7
370
    25
100
AcDbCircle
 10
6312.048712601
 20
5148.7994545928
 30
0.0
 40
0.4499999999999699
100
AcDbArc
 50
347.1604115932
 51
90.0
  0
ARC
  5
131
330
1F
100
AcDbEntity
  8
0
  6
Continuous
 62
     7
370
    25
100
AcDbCircle
 10
6301.5187553361
 20
5151.1994545928
 30
0.0
 40
10.35000000000036
100
AcDbArc
 50
282.8395884069
 51
347.1604115931
  0
ARC
  5
132
330
1F
100
AcDbEntity
  8
0
  6
Continuous
 62
     7
370
    25
100
AcDbCircle
 10
6301.5187553361
 20
5151.1994545928
 30
0.0
 40
11.2500000000003
100
AcDbArc
 50
282.8395884069
 51
347.1604115931
  0
ARC
  5
133
330
1F
100
AcDbEntity
  8
0
  6
Continuous
 62
     7
370
    25
100
AcDbCircle
 10
6303.9187553361
 20
5140.6694973279
 30
0.0
 40
0.4499999999998181
100
AcDbArc
 50
102.8395884069
 51
180.0
  0
ARC
  5
134
330
1F
100
AcDbEntity
  8
0
  6
Continuous
 62
     7
370
    25
100
AcDbCircle
 10
6303.9187553361
 20
5140.6694973279
 30
0.0
 40
0.4500000000003742
100
AcDbArc
 50
180.0
 51
282.8395884071
  0
ARC
  5
135
330
1F
100
AcDbEntity
  8
0
  6
Continuous
 62
     7
370
    25
100
AcDbCircle
 10
6312.048712601
 20
5148.7994545928
 30
0.0
 40
0.4499999999999699
100
AcDbArc
 50
90.0
 51
167.1604115932
  0
ARC
  5
136
330
1F
100
AcDbEntity
  8
0
  6
Continuous
 62
     7
370
    25
100
AcDbCircle
 10
6307.6687553361
 20
5151.1994545928
 30
0.0
 40
0.4499999999998181
100
AcDbArc
 50
180.0
 51
270.0
  0
ARC
  5
137
330
1F
100
AcDbEntity
  8
0
  6
Continuous
 62
     7
370
    25
100
AcDbCircle
 10
6307.6687553361
 20
5151.1994545928
 30
0.0
 40
0.4499999999998181
100
AcDbArc
 50
90.0
 51
180.0
  0
ARC
  5
138
330
1F
100
AcDbEntity
  8
0
  6
Continuous
 62
     7
370
    25
100
AcDbCircle
 10
6319.8187553361
 20
5151.1994545928
 30
0.0
 40
0.4499999999998181
100
AcDbArc
 50
270.0
 51
0.0
  0
LINE
  5
139
330
1F
100
AcDbEntity
  8
0
  6
Continuous
 62
     7
370
    25
100
AcDbLine
 10
6319.8187553361
 20
5151.6494545928
 30
0.0
 11
6307.6687553361
 21
5151.6494545928
 31
0.0
  0
LINE
  5
13A
330
1F
100
AcDbEntity
  8
0
  6
Continuous
 62
     7
370
    25
100
AcDbLine
 10
6319.8187553361
 20
5150.7494545928
 30
0.0
 11
6307.6687553361
 21
5150.7494545928
 31
0.0
  0
ARC
  5
13B
330
1F
100
AcDbEntity
  8
0
  6
Continuous
 62
     7
370
    25
100
AcDbCircle
 10
6319.8187553361
 20
5151.1994545928
 30
0.0
 40
0.4499999999998181
100
AcDbArc
 50
0.0
 51
90.0
  0
ARC
  5
13C
330
1F
100
AcDbEntity
  8
0
  6
Continuous
 62
     7
370
    25
100
AcDbCircle
 10
6285.3458613465
 20
5148.7994545928
 30
0.0
 40
0.4499999999998797
100
AcDbArc
 50
90.0
 51
188.4408894413
  0
ARC
  5
13D
330
1F
100
AcDbEntity
  8
0
  6
Continuous
 62
     7
370
    25
100
AcDbCircle
 10
6285.3458613465
 20
5148.7994545928
 30
0.0
 40
0.4499999999998797
100
AcDbArc
 50
8.4408894413
 51
90.0
  0
ARC
  5
13E
330
1F
100
AcDbEntity
  8
0
  6
Continuous
 62
     7
370
    25
100
AcDbCircle
 10
6301.5187553361
 20
5151.1994545928
 30
0.0
 40
15.89999999999987
100
AcDbArc
 50
188.4408894413
 51
261.5591105587
  0
ARC
  5
13F
330
1F
100
AcDbEntity
  8
0
  6
Continuous
 62
     7
370
    25
100
AcDbCircle
 10
6299.1187553361
 20
5135.0265606031
 30
0.0
 40
0.4500000000007793
100
AcDbArc
 50
0.0
 51
81.5591105587
  0
ARC
  5
140
330
1F
100
AcDbEntity
  8
0
  6
Continuous
 62
     7
370
    25
100
AcDbCircle
 10
6299.1187553361
 20
5135.0265606031
 30
0.0
 40
0.4499999999998181
100
AcDbArc
 50
261.5591105585
 51
0.0
  0
ARC
  5
141
330
1F
100
AcDbEntity
  8
0
  6
Continuous
 62
     7
370
    25
100
AcDbCircle
 10
6301.5187553361
 20
5151.1994545928
 30
0.0
 40
16.79999999999976
100
AcDbArc
 50
188.4408894413
 51
261.5591105586
  0
ARC
  5
142
330
1F
100
AcDbEntity
  8
0
  6
Continuous
 62
     7
370
    25
100
AcDbCircle
 10
6285.3458613465
 20
5153.5994545928
 30
0.0
 40
0.4499999999998797
100
AcDbArc
 50
270.0
 51
351.5591105587
  0
ARC
  5
143
330
1F
100
AcDbEntity
  8
0
  6
Continuous
 62
     7
370
    25
100
AcDbCircle
 10
6285.3458613465
 20
5153.5994545928
 30
0.0
 40
0.4500000000000132
100
AcDbArc
 50
171.5591105585
 51
270.0
  0
ARC
  5
144
330
1F
100
AcDbEntity
  8
0
  6
Continuous
 62
     7
370
    25
100
AcDbCircle
 10
6299.1187553361
 20
5167.3723485824
 30
0.0
 40
0.4499999999998181
100
AcDbArc
 50
0.0
 51
98.4408894415
  0
ARC
  5
145
330
1F
100
AcDbEntity
  8
0
  6
Continuous
 62
     7
370
    25
100
AcDbCircle
 10
6299.1187553361
 20
5167.3723485824
 30
0.0
 40
0.4500000000007793
100
AcDbArc
 50
278.4408894413
 51
0.0
  0
ARC
  5
146
330
1F
100
AcDbEntity
  8
0
  6
Continuous
 62
     7
370
    25
100
AcDbCircle
 10
6301.5187553361
 20
5151.1994545928
 30
0.0
 40
16.79999999999976
100
AcDbArc
 50
98.4408894414
 51
171.5591105586
  0
ARC
  5
147
330
1F
100
AcDbEntity
  8
0
  6
Continuous
 62
     7
370
    25
100
AcDbCircle
 10
6301.5187553361
 20
5151.1994545928
 30
0.0
 40
15.89999999999987
100
AcDbArc
 50
98.4408894413
 51
171.5591105587
  0
LINE
  5
148
330
1F
100
AcDbEntity
  8
0
  6
Continuous
 62
     7
370
    25
100
AcDbLine
 10
6251.4797832183
 20
5286.1994545928
 30
0.0
 11
6246.5187553361
 21
5293.7538597729
 31
0.0
  0
LINE
  5
149
330
1F
100
AcDbEntity
  8
0
  6
Continuous
 62
     7
370
    25
100
AcDbLine
 10
6247.0187553361
 20
5292.0816105327
 30
0.0
 11
6250.8816060741
 21
5286.1994545928
 31
0.0
  0
LINE
  5
14A
330
1F
100
AcDbEntity
  8
0
  6
Continuous
 62
     7
370
    25
100
AcDbLine
 10
6247.0187553361
 20
5280.3172986528
 30
0.0
 11
6247.0187553361
 21
5292.0816105327
 31
0.0
  0
LINE
  5
14B
330
1F
100
AcDbEntity
  8
0
  6
Continuous
 62
     7
370
    25
100
AcDbLine
 10
6250.8816060741
 20
5286.1994545928
 30
0.0
 11
6247.0187553361
 21
5280.3172986528
 31
0.0
  0
LINE
  5
14C
330
1F
100
AcDbEntity
  8
0
  6
Continuous
 62
     7
370
    25
100
AcDbLine
 10
6246.5187553361
 20
5278.6450494127
 30
0.0
 11
6251.4797832183
 21
5286.1994545928
 31
0.0
  0
LINE
  5
14D
330
1F
100
AcDbEntity
  8
0
  6
Continuous
 62
     7
370
    25
100
AcDbLine
 10
6246.5187553361
 20
5293.7538597729
 30
0.0
 11
6246.5187553361
 21
5278.6450494127
 31
0.0
  0
LINE
  5
14E
330
1F
100
AcDbEntity
  8
0
  6
Continuous
 62
     7
370
    25
100
AcDbLine
 10
6251.4797832183
 20
5151.1994545928
 30
0.0
 11
6246.5187553361
 21
5158.7538597729
 31
0.0
  0
LINE
  5
14F
330
1F
100
AcDbEntity
  8
0
  6
Continuous
 62
     7
370
    25
100
AcDbLine
 10
6247.0187553361
 20
5157.0816105327
 30
0.0
 11
6250.8816060741
 21
5151.1994545928
 31
0.0
  0
LINE
  5
150
330
1F
100
AcDbEntity
  8
0
  6
Continuous
 62
     7
370
    25
100
AcDbLine
 10
6247.0187553361
 20
5145.3172986528
 30
0.0
 11
6247.0187553361
 21
5157.0816105327
 31
0.0
  0
LINE
  5
151
330
1F
100
AcDbEntity
  8
0
  6
Continuous
 62
     7
370
    25
100
AcDbLine
 10
6250.8816060741
 20
5151.1994545928
 30
0.0
 11
6247.0187553361
 21
5145.3172986528
 31
0.0
  0
LINE
  5
152
330
1F
100
AcDbEntity
  8
0
  6
Continuous
 62
     7
370
    25
100
AcDbLine
 10
6246.5187553361
 20
5143.6450494127
 30
0.0
 11
6251.4797832183
 21
5151.1994545928
 31
0.0
  0
LINE
  5
153
330
1F
100
AcDbEntity
  8
0
  6
Continuous
 62
     7
370
    25
100
AcDbLine
 10
6246.5187553361
 20
5158.7538597729
 30
0.0
 11
6246.5187553361
 21
5143.6450494127
 31
0.0
  0
LINE
  5
154
330
1F
100
AcDbEntity
  8
0
  6
Continuous
 62
     7
370
    25
100
AcDbLine
 10
6251.4797832183
 20
5256.1994545928
 30
0.0
 11
6246.5187553361
 21
5263.7538597729
 31
0.0
  0
LINE
  5
155
330
1F
100
AcDbEntity
  8
0
  6
Continuous
 62
     7
370
    25
100
AcDbLine
 10
6247.0187553361
 20
5262.0816105327
 30
0.0
 11
6250.8816060741
 21
5256.1994545928
 31
0.0
  0
LINE
  5
156
330
1F
100
AcDbEntity
  8
0
  6
Continuous
 62
     7
370
    25
100
AcDbLine
 10
6247.0187553361
 20
5250.3172986528
 30
0.0
 11
6247.0187553361
 21
5262.0816105327
 31
0.0
  0
LINE
  5
157
330
1F
100
AcDbEntity
  8
0
  6
Continuous
 62
     7
370
    25
100
AcDbLine
 10
6250.8816060741
 20
5256.1994545928
 30
0.0
 11
6247.0187553361
 21
5250.3172986528
 31
0.0
  0
LINE
  5
158
330
1F
100
AcDbEntity
  8
0
  6
Continuous
 62
     7
370
    25
100
AcDbLine
 10
6246.5187553361
 20
5263.7538597729
 30
0.0
 11
6246.5187553361
 21
5248.6450494127
 31
0.0
  0
LINE
  5
159
330
1F
100
AcDbEntity
  8
0
  6
Continuous
 62
     7
370
    25
100
AcDbLine
 10
6246.5187553361
 20
5248.6450494127
 30
0.0
 11
6251.4797832183
 21
5256.1994545928
 31
0.0
  0
LINE
  5
15A
330
1F
100
AcDbEntity
  8
0
  6
Continuous
 62
     7
370
    25
100
AcDbLine
 10
6210.0853047146
 20
5288.3994545928
 30
0.0
 11
6210.0853047146
 21
5284.6303576496
 31
0.0
  0
LINE
  5
15B
330
1F
100
AcDbEntity
  8
0
  6
Continuous
 62
     7
370
    25
100
AcDbLine
 10
6216.2603047146
 20
5288.3994545928
 30
0.0
 11
6216.2603047146
 21
5295.3994545928
 31
0.0
  0
LINE
  5
15C
330
1F
100
AcDbEntity
  8
0
  6
Continuous
 62
     7
370
    25
100
AcDbLine
 10
6216.2603047146
 20
5288.3994545928
 30
0.0
 11
6212.8353047146
 21
5288.3994545928
 31
0.0
  0
LINE
  5
15D
330
1F
100
AcDbEntity
  8
0
  6
Continuous
 62
     7
370
    25
100
AcDbLine
 10
6212.8353047146
 20
5287.0228349043
 30
0.0
 11
6212.8353047146
 21
5288.3994545928
 31
0.0
  0
LINE
  5
15E
330
1F
100
AcDbEntity
  8
0
  6
Continuous
 62
     7
370
    25
100
AcDbLine
 10
6216.714112725
 20
5286.8157122066
 30
0.0
 11
6216.0929041911
 21
5286.8157122066
 31
0.0
  0
ARC
  5
15F
330
1F
100
AcDbEntity
  8
0
  6
Continuous
 62
     7
370
    25
100
AcDbCircle
 10
6216.714112725
 20
5285.7756621801
 30
0.0
 40
1.04005002654867
100
AcDbArc
 50
83.6658541675
 51
90.0
  0
ARC
  5
160
330
1F
100
AcDbEntity
  8
0
  6
Continuous
 62
     7
370
    25
100
AcDbCircle
 10
6211.4603047146
 20
5291.8994545928
 30
0.0
 40
7.397999416667532
100
AcDbArc
 50
316.5251416456
 51
259.2886619023
  0
ARC
  5
161
330
1F
100
AcDbEntity
  8
0
  6
Continuous
 62
     7
370
    25
100
AcDbCircle
 10
6218.4612758318
 20
5284.8105992313
 30
0.0
 40
1.007767373707173
100
AcDbArc
 50
90.0
 51
134.5605795818
  0
LINE
  5
162
330
1F
100
AcDbEntity
  8
0
  6
Continuous
 62
     7
370
    25
100
AcDbLine
 10
6219.0957410844
 20
5285.818366605
 30
0.0
 11
6218.4612758318
 21
5285.818366605
 31
0.0
  0
ARC
  5
163
330
1F
100
AcDbEntity
  8
0
  6
Continuous
 62
     7
370
    25
100
AcDbCircle
 10
6219.0957410844
 20
5284.8105992313
 30
0.0
 40
1.007767373706884
100
AcDbArc
 50
0.0
 51
90.0
  0
LINE
  5
164
330
1F
100
AcDbEntity
  8
0
  6
Continuous
 62
     7
370
    25
100
AcDbLine
 10
6220.1035084581
 20
5276.8958606981
 30
0.0
 11
6220.1035084581
 21
5284.8105992313
 31
0.0
  0
ARC
  5
165
330
1F
100
AcDbEntity
  8
0
  6
Continuous
 62
     7
370
    25
100
AcDbCircle
 10
6215.8035084581
 20
5276.8958606981
 30
0.0
 40
4.300000000000182
100
AcDbArc
 50
267.4407663872
 51
0.0
  0
LINE
  5
166
330
1F
100
AcDbEntity
  8
0
  6
Continuous
 62
     7
370
    25
100
AcDbLine
 10
6213.3053140941
 20
5272.600149548
 30
0.0
 11
6215.6115039917
 21
5272.600149548
 31
0.0
  0
LINE
  5
167
330
1F
100
AcDbEntity
  8
0
  6
Continuous
 62
     7
370
    25
100
AcDbLine
 10
6207.5853047146
 20
5283.9436130919
 30
0.0
 11
6207.5853047146
 21
5278.5936130919
 31
0.0
  0
ARC
  5
168
330
1F
100
AcDbEntity
  8
0
  6
Continuous
 62
     7
370
    25
100
AcDbCircle
 10
6208.0040405951
 20
5281.5994545928
 30
0.0
 40
2.381264119516195
100
AcDbArc
 50
29.0712090114
 51
100.1278965213
  0
ARC
  5
169
330
1F
100
AcDbEntity
  8
0
  6
Continuous
 62
     7
370
    25
100
AcDbCircle
 10
6211.4603047146
 20
5291.8994545928
 30
0.0
 40
8.199999999999722
100
AcDbArc
 50
317.89967747
 51
260.3468732375
  0
LINE
  5
16A
330
1F
100
AcDbEntity
  8
0
  6
Continuous
 62
     7
370
    25
100
AcDbLine
 10
6213.3468994058
 20
5286.3027917582
 30
0.0
 11
6213.3468994058
 21
5283.3630840822
 31
0.0
  0
ARC
  5
16B
330
1F
100
AcDbEntity
  8
0
  6
Continuous
 62
     7
370
    25
100
AcDbCircle
 10
6212.6911020602
 20
5283.3630840822
 30
0.0
 40
0.655797345627434
100
AcDbArc
 50
180.0
 51
0.0
  0
LINE
  5
16C
330
1F
100
AcDbEntity
  8
0
  6
Continuous
 62
     7
370
    25
100
AcDbLine
 10
6212.0353047146
 20
5283.3630840822
 30
0.0
 11
6212.0353047146
 21
5290.9994545928
 31
0.0
  0
ARC
  5
16D
330
1F
100
AcDbEntity
  8
0
  6
Continuous
 62
     7
370
    25
100
AcDbCircle
 10
6211.4603047146
 20
5290.9994545928
 30
0.0
 40
0.5750000000007276
100
AcDbArc
 50
0.0
 51
180.0
  0
LINE
  5
16E
330
1F
100
AcDbEntity
  8
0
  6
Continuous
 62
     7
370
    25
100
AcDbLine
 10
6210.8853047146
 20
5290.9994545928
 30
0.0
 11
6210.8853047146
 21
5279.6994545928
 31
0.0
  0
ARC
  5
16F
330
1F
100
AcDbEntity
  8
0
  6
Continuous
 62
     7
370
    25
100
AcDbCircle
 10
6210.2353047146
 20
5279.6994545928
 30
0.0
 40
0.6499999999996362
100
AcDbArc
 50
180.0
 51
0.0
  0
LINE
  5
170
330
1F
100
AcDbEntity
  8
0
  6
Continuous
 62
     7
370
    25
100
AcDbLine
 10
6208.3853047146
 20
5283.134066559
 30
0.0
 11
6208.3853047146
 21
5278.5954994798
 31
0.0
  0
ARC
  5
171
330
1F
100
AcDbEntity
  8
0
  6
Continuous
 62
     7
370
    25
100
AcDbCircle
 10
6213.5853047146
 20
5278.5954994798
 30
0.0
 40
5.200000000000418
100
AcDbArc
 50
180.0
 51
267.5767513068
  0
LINE
  5
172
330
1F
100
AcDbEntity
  8
0
  6
Continuous
 62
     7
370
    25
100
AcDbLine
 10
6213.3654431995
 20
5273.400149548
 30
0.0
 11
6215.6320949177
 21
5273.400149548
 31
0.0
  0
ARC
  5
173
330
1F
100
AcDbEntity
  8
0
  6
Continuous
 62
     7
370
    25
100
AcDbCircle
 10
6215.8035084581
 20
5276.8959495134
 30
0.0
 40
3.5
100
AcDbArc
 50
267.1927991873
 51
0.0
  0
LINE
  5
174
330
1F
100
AcDbEntity
  8
0
  6
Continuous
 62
     7
370
    25
100
AcDbLine
 10
6219.3035084581
 20
5276.8959495134
 30
0.0
 11
6219.3035084581
 21
5284.8105992313
 31
0.0
  0
ARC
  5
175
330
1F
100
AcDbEntity
  8
0
  6
Continuous
 62
     7
370
    25
100
AcDbCircle
 10
6219.0957410844
 20
5284.8105992313
 30
0.0
 40
0.2077673737067016
100
AcDbArc
 50
0.0
 51
90.0
  0
ARC
  5
176
330
1F
100
AcDbEntity
  8
0
  6
Continuous
 62
     7
370
    25
100
AcDbCircle
 10
6218.4612758318
 20
5284.8105992313
 30
0.0
 40
0.2077673737076111
100
AcDbArc
 50
90.0
 51
180.0
  0
LINE
  5
177
330
1F
100
AcDbEntity
  8
0
  6
Continuous
 62
     7
370
    25
100
AcDbLine
 10
6218.2535084581
 20
5284.8105992313
 30
0.0
 11
6218.2535084581
 21
5283.378333138
 31
0.0
  0
ARC
  5
178
330
1F
100
AcDbEntity
  8
0
  6
Continuous
 62
     7
370
    25
100
AcDbCircle
 10
6217.6035084581
 20
5283.378333138
 30
0.0
 40
0.6500000000005457
100
AcDbArc
 50
180.0
 51
0.0
  0
LINE
  5
179
330
1F
100
AcDbEntity
  8
0
  6
Continuous
 62
     7
370
    25
100
AcDbLine
 10
6216.9535084581
 20
5283.378333138
 30
0.0
 11
6216.9535084581
 21
5285.7756621801
 31
0.0
  0
ARC
  5
17A
330
1F
100
AcDbEntity
  8
0
  6
Continuous
 62
     7
370
    25
100
AcDbCircle
 10
6216.714112725
 20
5285.7756621801
 30
0.0
 40
0.2393957330587
100
AcDbArc
 50
0.0
 51
90.0
  0
LINE
  5
17B
330
1F
100
AcDbEntity
  8
0
  6
Continuous
 62
     7
370
    25
100
AcDbLine
 10
6216.714112725
 20
5286.0150579131
 30
0.0
 11
6216.0929041911
 21
5286.0150579131
 31
0.0
  0
ARC
  5
17C
330
1F
100
AcDbEntity
  8
0
  6
Continuous
 62
     7
370
    25
100
AcDbCircle
 10
6216.0929041911
 20
5285.7756621801
 30
0.0
 40
0.2393957330587
100
AcDbArc
 50
90.0
 51
180.0
  0
LINE
  5
17D
330
1F
100
AcDbEntity
  8
0
  6
Continuous
 62
     7
370
    25
100
AcDbLine
 10
6215.8535084581
 20
5285.7756621801
 30
0.0
 11
6215.8535084581
 21
5283.35560383
 31
0.0
  0
LINE
  5
17E
330
1F
100
AcDbEntity
  8
0
  6
Continuous
 62
     7
370
    25
100
AcDbLine
 10
6214.4968994058
 20
5283.35560383
 30
0.0
 11
6214.4968994058
 21
5286.295311506
 31
0.0
  0
LINE
  5
17F
330
1F
100
AcDbEntity
  8
0
  6
Continuous
 62
     7
370
    25
100
AcDbLine
 10
6215.4603047146
 20
5289.1994545928
 30
0.0
 11
6212.8353047146
 21
5289.1994545928
 31
0.0
  0
LINE
  5
180
330
1F
100
AcDbEntity
  8
0
  6
Continuous
 62
     7
370
    25
100
AcDbLine
 10
6215.4603047146
 20
5289.1994545928
 30
0.0
 11
6215.4603047146
 21
5294.5994545928
 31
0.0
  0
LINE
  5
181
330
1F
100
AcDbEntity
  8
0
  6
Continuous
 62
     7
370
    25
100
AcDbLine
 10
6207.4603047146
 20
5289.1994545928
 30
0.0
 11
6207.4603047146
 21
5294.5994545928
 31
0.0
  0
LINE
  5
182
330
1F
100
AcDbEntity
  8
0
  6
Continuous
 62
     7
370
    25
100
AcDbLine
 10
6210.0853047146
 20
5289.1994545928
 30
0.0
 11
6207.4603047146
 21
5289.1994545928
 31
0.0
  0
LINE
  5
183
330
1F
100
AcDbEntity
  8
0
  6
Continuous
 62
     7
370
    25
100
AcDbLine
 10
6210.0853047146
 20
5290.9994545928
 30
0.0
 11
6210.0853047146
 21
5289.1994545928
 31
0.0
  0
ARC
  5
184
330
1F
100
AcDbEntity
  8
0
  6
Continuous
 62
     7
370
    25
100
AcDbCircle
 10
6211.4603047146
 20
5290.9994545928
 30
0.0
 40
1.375
100
AcDbArc
 50
0.0
 51
180.0
  0
LINE
  5
185
330
1F
100
AcDbEntity
  8
0
  6
Continuous
 62
     7
370
    25
100
AcDbLine
 10
6210.0853047146
 20
5283.8155585642
 30
0.0
 11
6210.0853047146
 21
5282.7565019002
 31
0.0
  0
ARC
  5
186
330
1F
100
AcDbEntity
  8
0
  6
Continuous
 62
     7
370
    25
100
AcDbCircle
 10
6213.5819696969
 20
5286.306383503
 30
0.0
 40
0.235097729409708
100
AcDbArc
 50
92.9587446601
 51
180.875379889
  0
ARC
  5
187
330
1F
100
AcDbEntity
  8
0
  6
Continuous
 62
     7
370
    25
100
AcDbCircle
 10
6216.714112725
 20
5285.7756621801
 30
0.0
 40
1.04005002654776
100
AcDbArc
 50
0.0
 51
37.023605488
  0
LINE
  5
188
330
1F
100
AcDbEntity
  8
0
  6
Continuous
 62
     7
370
    25
100
AcDbLine
 10
6217.7541627516
 20
5285.5286425248
 30
0.0
 11
6217.7541627516
 21
5285.7756621801
 31
0.0
  0
LINE
  5
189
330
1F
100
AcDbEntity
  8
0
  6
Continuous
 62
     7
370
    25
100
AcDbLine
 10
6210.0853047146
 20
5288.3994545928
 30
0.0
 11
6206.6603047146
 21
5288.3994545928
 31
0.0
  0
LINE
  5
18A
330
1F
100
AcDbEntity
  8
0
  6
Continuous
 62
     7
370
    25
100
AcDbLine
 10
6215.4603047146
 20
5294.5994545928
 30
0.0
 11
6207.4603047146
 21
5294.5994545928
 31
0.0
  0
LINE
  5
18B
330
1F
100
AcDbEntity
  8
0
  6
Continuous
 62
     7
370
    25
100
AcDbLine
 10
6206.6603047146
 20
5288.3994545928
 30
0.0
 11
6206.6603047146
 21
5295.3994545928
 31
0.0
  0
LINE
  5
18C
330
1F
100
AcDbEntity
  8
0
  6
Continuous
 62
     7
370
    25
100
AcDbLine
 10
6216.2603047146
 20
5295.3994545928
 30
0.0
 11
6206.6603047146
 21
5295.3994545928
 31
0.0
  0
LINE
  5
18D
330
1F
100
AcDbEntity
  8
0
  6
Continuous
 62
     7
370
    25
100
AcDbLine
 10
6209.5853047146
 20
5279.6994545928
 30
0.0
 11
6209.5853047146
 21
5281.5994545928
 31
0.0
  0
ARC
  5
18E
330
1F
100
AcDbEntity
  8
0
  6
Continuous
 62
     7
370
    25
100
AcDbCircle
 10
6213.5819696969
 20
5286.306383503
 30
0.0
 40
1.034800080313543
100
AcDbArc
 50
90.3160745259
 51
136.182998629
  0
LINE
  5
18F
330
1F
100
AcDbEntity
  8
0
  6
Continuous
 62
     7
370
    25
100
AcDbLine
 10
6214.2580425804
 20
5287.3411678378
 30
0.0
 11
6213.5762612086
 21
5287.3411678378
 31
0.0
  0
LINE
  5
190
330
1F
100
AcDbEntity
  8
0
  6
Continuous
 62
     7
370
    25
100
AcDbLine
 10
6214.2580425804
 20
5286.5411678378
 30
0.0
 11
6213.5698346837
 21
5286.5411678378
 31
0.0
  0
ARC
  5
191
330
1F
100
AcDbEntity
  8
0
  6
Continuous
 62
     7
370
    25
100
AcDbCircle
 10
6214.2580425804
 20
5286.3022113746
 30
0.0
 40
1.038956463121394
100
AcDbArc
 50
7.3385411615
 51
90.0
  0
ARC
  5
192
330
1F
100
AcDbEntity
  8
0
  6
Continuous
 62
     7
370
    25
100
AcDbCircle
 10
6215.175203932
 20
5283.35560383
 30
0.0
 40
0.6783045261090592
100
AcDbArc
 50
180.0
 51
0.0
  0
ARC
  5
193
330
1F
100
AcDbEntity
  8
0
  6
Continuous
 62
     7
370
    25
100
AcDbCircle
 10
6214.2580425804
 20
5286.3022113746
 30
0.0
 40
0.2389564631212124
100
AcDbArc
 50
358.3453541915
 51
90.0
  0
ARC
  5
194
330
1F
100
AcDbEntity
  8
0
  6
Continuous
 62
     7
370
    25
100
AcDbCircle
 10
6208.0040405951
 20
5281.5994545928
 30
0.0
 40
1.581264119516235
100
AcDbArc
 50
0.0
 51
76.0477309088
  0
LINE
  5
195
330
1F
100
AcDbEntity
  8
0
  6
Continuous
 62
     7
370
    25
100
AcDbLine
 10
6219.0957410844
 20
5285.018366605
 30
0.0
 11
6218.4612758318
 21
5285.018366605
 31
0.0
  0
LINE
  5
196
330
1F
100
AcDbEntity
  8
0
  6
Continuous
 62
     7
370
    25
100
AcDbLine
 10
6212.8353047146
 20
5290.9994545928
 30
0.0
 11
6212.8353047146
 21
5289.1994545928
 31
0.0
  0
ARC
  5
197
330
1F
100
AcDbEntity
  8
0
  6
Continuous
 62
     7
370
    25
100
AcDbCircle
 10
6216.0929041911
 20
5285.7756621801
 30
0.0
 40
1.04005002654867
100
AcDbArc
 50
90.0
 51
140.6637423936
  0
ARC
  5
198
330
1F
100
AcDbEntity
  8
0
  6
Continuous
 62
     7
370
    25
100
AcDbCircle
 10
6213.5853047146
 20
5278.5936130919
 30
0.0
 40
6.000000000000376
100
AcDbArc
 50
180.0
 51
267.3253151781
  0
CIRCLE
  5
199
330
1F
100
AcDbEntity
  8
0
  6
Continuous
 62
     7
370
    25
100
AcDbCircle
 10
6236.5187553361
 20
5286.1994545928
 30
0.0
 40
2.5
  0
CIRCLE
  5
19A
330
1F
100
AcDbEntity
  8
0
  6
Continuous
 62
     7
370
    25
100
AcDbCircle
 10
6236.5187553361
 20
5151.1994545928
 30
0.0
 40
2.5
  0
CIRCLE
  5
19B
330
1F
100
AcDbEntity
  8
0
  6
Continuous
 62
     7
370
    25
100
AcDbCircle
 10
6236.5187553361
 20
5256.1994545928
 30
0.0
 40
2.499999999999091
  0
CIRCLE
  5
19C
330
1F
100
AcDbEntity
  8
0
  6
Continuous
 62
     7
370
    25
100
AcDbCircle
 10
6236.5187553361
 20
5286.1994545928
 30
0.0
 40
3.0
  0
CIRCLE
  5
19D
330
1F
100
AcDbEntity
  8
0
  6
Continuous
 62
     7
370
    25
100
AcDbCircle
 10
6236.5187553361
 20
5286.1994545928
 30
0.0
 40
5.0
  0
CIRCLE
  5
19E
330
1F
100
AcDbEntity
  8
0
  6
Continuous
 62
     7
370
    25
100
AcDbCircle
 10
6236.5187553361
 20
5256.1994545928
 30
0.0
 40
3.0
  0
CIRCLE
  5
19F
330
1F
100
AcDbEntity
  8
0
  6
Continuous
 62
     7
370
    25
100
AcDbCircle
 10
6236.5187553361
 20
5256.1994545928
 30
0.0
 40
4.999999999999091
  0
CIRCLE
  5
1A0
330
1F
100
AcDbEntity
  8
0
  6
Continuous
 62
     7
370
    25
100
AcDbCircle
 10
6236.5187553361
 20
5151.1994545928
 30
0.0
 40
3.0
  0
CIRCLE
  5
1A1
330
1F
100
AcDbEntity
  8
0
  6
Continuous
 62
     7
370
    25
100
AcDbCircle
 10
6236.5187553361
 20
5151.1994545928
 30
0.0
 40
5.0
  0
CIRCLE
  5
1A2
330
1F
100
AcDbEntity
  8
0
  6
Continuous
 62
     7
370
    25
100
AcDbCircle
 10
6301.5187553361
 20
5271.1994545928
 30
0.0
 40
43.34999999999987
  0
CIRCLE
  5
1A3
330
1F
100
AcDbEntity
  8
0
  6
Continuous
 62
     7
370
    25
100
AcDbCircle
 10
6301.5187553361
 20
5271.1994545928
 30
0.0
 40
42.34999999999949
  0
CIRCLE
  5
1A4
330
1F
100
AcDbEntity
  8
0
  6
Continuous
 62
     7
370
    25
100
AcDbCircle
 10
6301.5187553361
 20
5271.1994545928
 30
0.0
 40
45.35000000000054
  0
LINE
  5
1A5
330
1F
100
AcDbEntity
  8
0
  6
Continuous
 62
     7
370
    25
100
AcDbLine
 10
6303.0187553361
 20
5238.0590780373
 30
0.0
 11
6301.5187553361
 21
5238.0590780373
 31
0.0
  0
LINE
  5
1A6
330
1F
100
AcDbEntity
  8
0
  6
Continuous
 62
     7
370
    25
100
AcDbLine
 10
6301.5187553361
 20
5238.5611157594
 30
0.0
 11
6301.5187553361
 21
5238.0590780373
 31
0.0
  0
LINE
  5
1A7
330
1F
100
AcDbEntity
  8
0
  6
Continuous
 62
     7
370
    25
100
AcDbLine
 10
6299.866133387
 20
5237.8090780373
 30
0.0
 11
6301.5187553361
 21
5238.5611157594
 31
0.0
  0
LINE
  5
1A8
330
1F
100
AcDbEntity
  8
0
  6
Continuous
 62
     7
370
    25
100
AcDbLine
 10
6301.5187553361
 20
5237.0570403153
 30
0.0
 11
6299.866133387
 21
5237.8090780373
 31
0.0
  0
ARC
  5
1A9
330
1F
100
AcDbEntity
  8
0
  6
Continuous
 62
     7
370
    25
100
AcDbCircle
 10
6303.0187553361
 20
5236.5402673628
 30
0.0
 40
1.518810674524502
100
AcDbArc
 50
270.0
 51
90.0
  0
ARC
  5
1AA
330
1F
100
AcDbEntity
  8
0
  6
Continuous
 62
     7
370
    25
100
AcDbCircle
 10
6270.8811934387
 20
5273.6599091294
 30
0.0
 40
0.3500000000000633
100
AcDbArc
 50
316.6499670745
 51
136.6499670745
  0
LINE
  5
1AB
330
1F
100
AcDbEntity
  8
0
  6
Continuous
 62
     7
370
    25
100
AcDbLine
 10
6268.2949016439
 20
5271.4300671098
 30
0.0
 11
6270.6266826799
 21
5273.9001678933
 31
0.0
  0
ARC
  5
1AC
330
1F
100
AcDbEntity
  8
0
  6
Continuous
 62
     7
370
    25
100
AcDbCircle
 10
6268.5494124027
 20
5271.1898083459
 30
0.0
 40
0.3500000000000633
100
AcDbArc
 50
136.6499670745
 51
226.6499670746
  0
LINE
  5
1AD
330
1F
100
AcDbEntity
  8
0
  6
Continuous
 62
     7
370
    25
100
AcDbLine
 10
6268.3091536388
 20
5270.935297587
 30
0.0
 11
6270.6409346748
 21
5268.7340907229
 31
0.0
  0
ARC
  5
1AE
330
1F
100
AcDbEntity
  8
0
  6
Continuous
 62
     7
370
    25
100
AcDbCircle
 10
6270.8811934387
 20
5268.9886014818
 30
0.0
 40
0.3500000000000633
100
AcDbArc
 50
226.6499670745
 51
46.6499670745
  0
LINE
  5
1AF
330
1F
100
AcDbEntity
  8
0
  6
Continuous
 62
     7
370
    25
100
AcDbLine
 10
6269.0441819255
 20
5271.2040603408
 30
0.0
 11
6271.1214522026
 21
5269.2431122406
 31
0.0
  0
LINE
  5
1B0
330
1F
100
AcDbEntity
  8
0
  6
Continuous
 62
     7
370
    25
100
AcDbLine
 10
6269.0441819255
 20
5271.2040603408
 30
0.0
 11
6271.1357041976
 21
5273.4196503655
 31
0.0
  0
LINE
  5
1B1
330
1F
100
AcDbEntity
  8
0
  6
Continuous
 62
     7
370
    25
100
AcDbLine
 10
6283.6955320314
 20
5244.0226778975
 30
0.0
 11
6285.5187553361
 21
5245.8459012022
 31
0.0
  0
LINE
  5
1B2
330
1F
100
AcDbEntity
  8
0
  6
Continuous
 62
     7
370
    25
100
AcDbLine
 10
6285.5187553361
 20
5245.8459012022
 30
0.0
 11
6287.3419786408
 21
5244.0226778975
 31
0.0
  0
ARC
  5
1B3
330
1F
100
AcDbEntity
  8
0
  6
Continuous
 62
     7
370
    25
100
AcDbCircle
 10
6287.5187553361
 20
5244.1994545928
 30
0.0
 40
0.2500000000006853
100
AcDbArc
 50
225.0
 51
45.0
  0
LINE
  5
1B4
330
1F
100
AcDbEntity
  8
0
  6
Continuous
 62
     7
370
    25
100
AcDbLine
 10
6285.8723087267
 20
5246.1994545928
 30
0.0
 11
6287.6955320314
 21
5244.3762312881
 31
0.0
  0
LINE
  5
1B5
330
1F
100
AcDbEntity
  8
0
  6
Continuous
 62
     7
370
    25
100
AcDbLine
 10
6285.8723087267
 20
5246.1994545928
 30
0.0
 11
6287.6955320314
 21
5248.0226778975
 31
0.0
  0
ARC
  5
1B6
330
1F
100
AcDbEntity
  8
0
  6
Continuous
 62
     7
370
    25
100
AcDbCircle
 10
6287.5187553361
 20
5248.1994545928
 30
0.0
 40
0.2500000000013284
100
AcDbArc
 50
314.9999999999
 51
135.0
  0
LINE
  5
1B7
330
1F
100
AcDbEntity
  8
0
  6
Continuous
 62
     7
370
    25
100
AcDbLine
 10
6285.5187553361
 20
5246.5530079833
 30
0.0
 11
6287.3419786408
 21
5248.3762312881
 31
0.0
  0
LINE
  5
1B8
330
1F
100
AcDbEntity
  8
0
  6
Continuous
 62
     7
370
    25
100
AcDbLine
 10
6283.6955320314
 20
5248.3762312881
 30
0.0
 11
6285.5187553361
 21
5246.5530079833
 31
0.0
  0
ARC
  5
1B9
330
1F
100
AcDbEntity
  8
0
  6
Continuous
 62
     7
370
    25
100
AcDbCircle
 10
6283.5187553361
 20
5248.1994545928
 30
0.0
 40
0.2500000000013284
100
AcDbArc
 50
45.0
 51
225.0000000001
  0
LINE
  5
1BA
330
1F
100
AcDbEntity
  8
0
  6
Continuous
 62
     7
370
    25
100
AcDbLine
 10
6283.3419786408
 20
5248.0226778975
 30
0.0
 11
6285.1652019455
 21
5246.1994545928
 31
0.0
  0
LINE
  5
1BB
330
1F
100
AcDbEntity
  8
0
  6
Continuous
 62
     7
370
    25
100
AcDbLine
 10
6283.3419786408
 20
5244.3762312881
 30
0.0
 11
6285.1652019455
 21
5246.1994545928
 31
0.0
  0
ARC
  5
1BC
330
1F
100
AcDbEntity
  8
0
  6
Continuous
 62
     7
370
    25
100
AcDbCircle
 10
6283.5187553361
 20
5244.1994545928
 30
0.0
 40
0.2500000000006853
100
AcDbArc
 50
135.0
 51
315.0
  0
LINE
  5
1BD
330
1F
100
AcDbEntity
  8
0
  6
Continuous
 62
     7
370
    25
100
AcDbLine
 10
6304.4581430275
 20
5300.5494545928
 30
0.0
 11
6328.326216984
 21
5300.5494545928
 31
0.0
  0
ARC
  5
1BE
330
1F
100
AcDbEntity
  8
0
  6
Continuous
 62
     7
370
    25
100
AcDbCircle
 10
6301.5187553361
 20
5271.1994545928
 30
0.0
 40
39.7500000000004
100
AcDbArc
 50
47.5923055777
 51
132.4076944223
  0
LINE
  5
1BF
330
1F
100
AcDbEntity
  8
0
  6
Continuous
 62
     7
370
    25
100
AcDbLine
 10
6274.7112936883
 20
5300.5494545928
 30
0.0
 11
6298.5793676448
 21
5300.5494545928
 31
0.0
  0
ARC
  5
1C0
330
1F
100
AcDbEntity
  8
0
  6
Continuous
 62
     7
370
    25
100
AcDbCircle
 10
6298.5793676448
 20
5301.5494545928
 30
0.0
 40
1.000000000000806
100
AcDbArc
 50
270.0
 51
348.4630409672
  0
ARC
  5
1C1
330
1F
100
AcDbEntity
  8
0
  6
Continuous
 62
     7
370
    25
100
AcDbCircle
 10
6301.5187553361
 20
5300.9494545928
 30
0.0
 40
2.000000000000357
100
AcDbArc
 50
11.5369590328
 51
168.4630409672
  0
ARC
  5
1C2
330
1F
100
AcDbEntity
  8
0
  6
Continuous
 62
     7
370
    25
100
AcDbCircle
 10
6304.4581430275
 20
5301.5494545928
 30
0.0
 40
1.0
100
AcDbArc
 50
191.5369590329
 51
270.0
  0
CIRCLE
  5
1C3
330
1F
100
AcDbEntity
  8
0
  6
Continuous
 62
     7
370
    25
100
AcDbCircle
 10
6301.5187553361
 20
5271.1994545928
 30
0.0
 40
40.75
  0
CIRCLE
  5
1C4
330
1F
100
AcDbEntity
  8
0
  6
Continuous
 62
     7
370
    25
100
AcDbCircle
 10
6301.5187553361
 20
5300.9494545928
 30
0.0
 40
1.5
  0
ARC
  5
1C5
330
1F
100
AcDbEntity
  8
0
  6
Continuous
 62
     7
370
    25
100
AcDbCircle
 10
6288.2187553361
 20
5294.6994545928
 30
0.0
 40
0.9000000000005457
100
AcDbArc
 50
270.0
 51
90.0
  0
LINE
  5
1C6
330
1F
100
AcDbEntity
  8
0
  6
Continuous
 62
     7
370
    25
100
AcDbLine
 10
6284.2187553361
 20
5295.5994545928
 30
0.0
 11
6288.2187553361
 21
5295.5994545928
 31
0.0
  0
ARC
  5
1C7
330
1F
100
AcDbEntity
  8
0
  6
Continuous
 62
     7
370
    25
100
AcDbCircle
 10
6284.2187553361
 20
5294.6994545928
 30
0.0
 40
0.9000000000005457
100
AcDbArc
 50
90.0
 51
270.0
  0
LINE
  5
1C8
330
1F
100
AcDbEntity
  8
0
  6
Continuous
 62
     7
370
    25
100
AcDbLine
 10
6284.2187553361
 20
5293.7994545928
 30
0.0
 11
6288.2187553361
 21
5293.7994545928
 31
0.0
  0
ARC
  5
1C9
330
1F
100
AcDbEntity
  8
0
  6
Continuous
 62
     7
370
    25
100
AcDbCircle
 10
6298.4187553361
 20
5294.6994545928
 30
0.0
 40
0.9000000000005457
100
AcDbArc
 50
270.0
 51
90.0
  0
LINE
  5
1CA
330
1F
100
AcDbEntity
  8
0
  6
Continuous
 62
     7
370
    25
100
AcDbLine
 10
6294.4187553361
 20
5295.5994545928
 30
0.0
 11
6298.4187553361
 21
5295.5994545928
 31
0.0
  0
ARC
  5
1CB
330
1F
100
AcDbEntity
  8
0
  6
Continuous
 62
     7
370
    25
100
AcDbCircle
 10
6294.4187553361
 20
5294.6994545928
 30
0.0
 40
0.9000000000005457
100
AcDbArc
 50
90.0
 51
270.0
  0
LINE
  5
1CC
330
1F
100
AcDbEntity
  8
0
  6
Continuous
 62
     7
370
    25
100
AcDbLine
 10
6294.4187553361
 20
5293.7994545928
 30
0.0
 11
6298.4187553361
 21
5293.7994545928
 31
0.0
  0
ARC
  5
1CD
330
1F
100
AcDbEntity
  8
0
  6
Continuous
 62
     7
370
    25
100
AcDbCircle
 10
6308.6187553361
 20
5294.6994545928
 30
0.0
 40
0.9000000000005457
100
AcDbArc
 50
270.0
 51
90.0
  0
LINE
  5
1CE
330
1F
100
AcDbEntity
  8
0
  6
Continuous
 62
     7
370
    25
100
AcDbLine
 10
6304.6187553361
 20
5295.5994545928
 30
0.0
 11
6308.6187553361
 21
5295.5994545928
 31
0.0
  0
ARC
  5
1CF
330
1F
100
AcDbEntity
  8
0
  6
Continuous
 62
     7
370
    25
100
AcDbCircle
 10
6304.6187553361
 20
5294.6994545928
 30
0.0
 40
0.9000000000005457
100
AcDbArc
 50
90.0
 51
270.0
  0
LINE
  5
1D0
330
1F
100
AcDbEntity
  8
0
  6
Continuous
 62
     7
370
    25
100
AcDbLine
 10
6304.6187553361
 20
5293.7994545928
 30
0.0
 11
6308.6187553361
 21
5293.7994545928
 31
0.0
  0
ARC
  5
1D1
330
1F
100
AcDbEntity
  8
0
  6
Continuous
 62
     7
370
    25
100
AcDbCircle
 10
6318.8187553361
 20
5294.6994545928
 30
0.0
 40
0.9000000000005457
100
AcDbArc
 50
270.0
 51
90.0
  0
LINE
  5
1D2
330
1F
100
AcDbEntity
  8
0
  6
Continuous
 62
     7
370
    25
100
AcDbLine
 10
6314.8187553361
 20
5295.5994545928
 30
0.0
 11
6318.8187553361
 21
5295.5994545928
 31
0.0
  0
LINE
  5
1D3
330
1F
100
AcDbEntity
  8
0
  6
Continuous
 62
     7
370
    25
100
AcDbLine
 10
6314.8187553361
 20
5293.7994545928
 30
0.0
 11
6318.8187553361
 21
5293.7994545928
 31
0.0
  0
ARC
  5
1D4
330
1F
100
AcDbEntity
  8
0
  6
Continuous
 62
     7
370
    25
100
AcDbCircle
 10
6303.0187553361
 20
5246.1994545928
 30
0.0
 40
0.25
100
AcDbArc
 50
270.0
 51
90.0
  0
LINE
  5
1D5
330
1F
100
AcDbEntity
  8
0
  6
Continuous
 62
     7
370
    25
100
AcDbLine
 10
6300.0187553361
 20
5246.4494545928
 30
0.0
 11
6303.0187553361
 21
5246.4494545928
 31
0.0
  0
LINE
  5
1D6
330
1F
100
AcDbEntity
  8
0
  6
Continuous
 62
     7
370
    25
100
AcDbLine
 10
6300.0187553361
 20
5245.9494545928
 30
0.0
 11
6303.0187553361
 21
5245.9494545928
 31
0.0
  0
ARC
  5
1D7
330
1F
100
AcDbEntity
  8
0
  6
Continuous
 62
     7
370
    25
100
AcDbCircle
 10
6303.0187553361
 20
5244.1994545928
 30
0.0
 40
0.25
100
AcDbArc
 50
270.0
 51
90.0
  0
LINE
  5
1D8
330
1F
100
AcDbEntity
  8
0
  6
Continuous
 62
     7
370
    25
100
AcDbLine
 10
6300.0187553361
 20
5244.4494545928
 30
0.0
 11
6303.0187553361
 21
5244.4494545928
 31
0.0
  0
LINE
  5
1D9
330
1F
100
AcDbEntity
  8
0
  6
Continuous
 62
     7
370
    25
100
AcDbLine
 10
6300.0187553361
 20
5243.9494545928
 30
0.0
 11
6303.0187553361
 21
5243.9494545928
 31
0.0
  0
CIRCLE
  5
1DA
330
1F
100
AcDbEntity
  8
0
  6
Continuous
 62
     7
370
    25
100
AcDbCircle
 10
6317.5187553361
 20
5246.1994545928
 30
0.0
 40
2.25
  0
LINE
  5
1DB
330
1F
100
AcDbEntity
  8
0
  6
Continuous
 62
     7
370
    25
100
AcDbLine
 10
6301.5187553361
 20
5237.5590780373
 30
0.0
 11
6301.5187553361
 21
5237.0570403153
 31
0.0
  0
LINE
  5
1DC
330
1F
100
AcDbEntity
  8
0
  6
Continuous
 62
     7
370
    25
100
AcDbLine
 10
6303.0187553361
 20
5237.5590780373
 30
0.0
 11
6301.5187553361
 21
5237.5590780373
 31
0.0
  0
ARC
  5
1DD
330
1F
100
AcDbEntity
  8
0
  6
Continuous
 62
     7
370
    25
100
AcDbCircle
 10
6303.0187553361
 20
5236.5402673628
 30
0.0
 40
1.018810674525412
100
AcDbArc
 50
270.0
 51
90.0
  0
LINE
  5
1DE
330
1F
100
AcDbEntity
  8
0
  6
Continuous
 62
     7
370
    25
100
AcDbLine
 10
6303.0187553361
 20
5235.5214566883
 30
0.0
 11
6300.8777883229
 21
5235.5214566883
 31
0.0
  0
LINE
  5
1DF
330
1F
100
AcDbEntity
  8
0
  6
Continuous
 62
     7
370
    25
100
AcDbLine
 10
6300.8777883229
 20
5235.5214566883
 30
0.0
 11
6300.8777883229
 21
5235.0214566883
 31
0.0
  0
LINE
  5
1E0
330
1F
100
AcDbEntity
  8
0
  6
Continuous
 62
     7
370
    25
100
AcDbLine
 10
6303.0187553361
 20
5235.0214566883
 30
0.0
 11
6300.8777883229
 21
5235.0214566883
 31
0.0
  0
ARC
  5
1E1
330
1F
100
AcDbEntity
  8
0
  6
Continuous
 62
     7
370
    25
100
AcDbCircle
 10
6300.0187553361
 20
5244.1994545928
 30
0.0
 40
0.25
100
AcDbArc
 50
90.0
 51
270.0
  0
ARC
  5
1E2
330
1F
100
AcDbEntity
  8
0
  6
Continuous
 62
     7
370
    25
100
AcDbCircle
 10
6303.0187553361
 20
5248.1994545928
 30
0.0
 40
0.2500000000009095
100
AcDbArc
 50
270.0
 51
90.0
  0
LINE
  5
1E3
330
1F
100
AcDbEntity
  8
0
  6
Continuous
 62
     7
370
    25
100
AcDbLine
 10
6300.0187553361
 20
5248.4494545928
 30
0.0
 11
6303.0187553361
 21
5248.4494545928
 31
0.0
  0
ARC
  5
1E4
330
1F
100
AcDbEntity
  8
0
  6
Continuous
 62
     7
370
    25
100
AcDbCircle
 10
6300.0187553361
 20
5248.1994545928
 30
0.0
 40
0.2500000000009095
100
AcDbArc
 50
90.0
 51
270.0
  0
LINE
  5
1E5
330
1F
100
AcDbEntity
  8
0
  6
Continuous
 62
     7
370
    25
100
AcDbLine
 10
6300.0187553361
 20
5247.9494545928
 30
0.0
 11
6303.0187553361
 21
5247.9494545928
 31
0.0
  0
ARC
  5
1E6
330
1F
100
AcDbEntity
  8
0
  6
Continuous
 62
     7
370
    25
100
AcDbCircle
 10
6300.0187553361
 20
5246.1994545928
 30
0.0
 40
0.25
100
AcDbArc
 50
90.0
 51
270.0
  0
LINE
  5
1E7
330
1F
100
AcDbEntity
  8
0
  6
Continuous
 62
     7
370
    25
100
AcDbLine
 10
6327.0187553361
 20
5252.1994545928
 30
0.0
 11
6276.0187553361
 21
5252.1994545928
 31
0.0
  0
LINE
  5
1E8
330
1F
100
AcDbEntity
  8
0
  6
Continuous
 62
     7
370
    25
100
AcDbLine
 10
6327.0187553361
 20
5252.1994545928
 30
0.0
 11
6327.0187553361
 21
5290.1994545928
 31
0.0
  0
LINE
  5
1E9
330
1F
100
AcDbEntity
  8
0
  6
Continuous
 62
     7
370
    25
100
AcDbLine
 10
6327.0187553361
 20
5290.1994545928
 30
0.0
 11
6276.0187553361
 21
5290.1994545928
 31
0.0
  0
LINE
  5
1EA
330
1F
100
AcDbEntity
  8
0
  6
Continuous
 62
     7
370
    25
100
AcDbLine
 10
6276.0187553361
 20
5252.1994545928
 30
0.0
 11
6276.0187553361
 21
5290.1994545928
 31
0.0
  0
ARC
  5
1EB
330
1F
100
AcDbEntity
  8
0
  6
Continuous
 62
     7
370
    25
100
AcDbCircle
 10
6314.8187553361
 20
5294.6994545928
 30
0.0
 40
0.9000000000005457
100
AcDbArc
 50
90.0
 51
270.0
  0
LINE
  5
1EC
330
1F
100
AcDbEntity
  8
0
  6
Continuous
 62
     7
370
    25
100
AcDbLine
 10
6334.7426090284
 20
5271.4300671098
 30
0.0
 11
6332.4108279924
 21
5273.9001678933
 31
0.0
  0
ARC
  5
1ED
330
1F
100
AcDbEntity
  8
0
  6
Continuous
 62
     7
370
    25
100
AcDbCircle
 10
6332.1563172335
 20
5273.6599091294
 30
0.0
 40
0.3500000000000633
100
AcDbArc
 50
43.3500329256
 51
223.3500329255
  0
LINE
  5
1EE
330
1F
100
AcDbEntity
  8
0
  6
Continuous
 62
     7
370
    25
100
AcDbLine
 10
6333.9933287468
 20
5271.2040603408
 30
0.0
 11
6331.9018064747
 21
5273.4196503655
 31
0.0
  0
LINE
  5
1EF
330
1F
100
AcDbEntity
  8
0
  6
Continuous
 62
     7
370
    25
100
AcDbLine
 10
6333.9933287468
 20
5271.2040603408
 30
0.0
 11
6331.9160584696
 21
5269.2431122406
 31
0.0
  0
ARC
  5
1F0
330
1F
100
AcDbEntity
  8
0
  6
Continuous
 62
     7
370
    25
100
AcDbCircle
 10
6332.1563172335
 20
5268.9886014818
 30
0.0
 40
0.3500000000006876
100
AcDbArc
 50
133.3500329256
 51
313.3500329255
  0
LINE
  5
1F1
330
1F
100
AcDbEntity
  8
0
  6
Continuous
 62
     7
370
    25
100
AcDbLine
 10
6334.7283570334
 20
5270.935297587
 30
0.0
 11
6332.3965759974
 21
5268.7340907229
 31
0.0
  0
ARC
  5
1F2
330
1F
100
AcDbEntity
  8
0
  6
Continuous
 62
     7
370
    25
100
AcDbCircle
 10
6334.4880982695
 20
5271.1898083459
 30
0.0
 40
0.3500000000000633
100
AcDbArc
 50
313.3500329254
 51
43.3500329255
  0
CIRCLE
  5
1F3
330
1F
100
AcDbEntity
  8
0
  6
Continuous
 62
     7
370
    25
100
AcDbCircle
 10
6301.5187553361
 20
5271.1994545928
 30
0.0
 40
42.25
  0
CIRCLE
  5
1F4
330
1F
100
AcDbEntity
  8
0
  6
Continuous
 62
     7
370
    25
100
AcDbCircle
 10
6317.5187553361
 20
5246.1994545928
 30
0.0
 40
1.750000000000909
  0
ARC
  5
1F5
330
1F
100
AcDbEntity
  8
0
  6
Continuous
 62
     7
370
    25
100
AcDbCircle
 10
6210.8609909754
 20
5141.7298915239
 30
0.0
 40
0.5760000000007148
100
AcDbArc
 50
300.0000000001
 51
120.0
  0
LINE
  5
1F6
330
1F
100
AcDbEntity
  8
0
  6
Continuous
 62
     7
370
    25
100
AcDbLine
 10
6209.5205196968
 20
5140.2908625603
 30
0.0
 11
6211.1489909754
 21
5141.2310608914
 31
0.0
  0
ARC
  5
1F7
330
1F
100
AcDbEntity
  8
0
  6
Continuous
 62
     7
370
    25
100
AcDbCircle
 10
6209.2325196968
 20
5140.7896931928
 30
0.0
 40
0.5760000000007148
100
AcDbArc
 50
120.0000000001
 51
300.0
  0
LINE
  5
1F8
330
1F
100
AcDbEntity
  8
0
  6
Continuous
 62
     7
370
    25
100
AcDbLine
 10
6208.9445196968
 20
5141.2885238254
 30
0.0
 11
6210.5729909754
 21
5142.2287221565
 31
0.0
  0
LINE
  5
1F9
330
1F
100
AcDbEntity
  8
0
  6
Continuous
 62
     7
370
    25
100
AcDbLine
 10
6209.3285196968
 20
5140.6234163153
 30
0.0
 11
6210.9569909754
 21
5141.5636146464
 31
0.0
  0
ARC
  5
1FA
330
1F
100
AcDbEntity
  8
0
  6
Continuous
 62
     7
370
    25
100
AcDbCircle
 10
6210.8609909754
 20
5141.7298915239
 30
0.0
 40
0.1919999999999351
100
AcDbArc
 50
300.0000000002
 51
119.9999999999
  0
LINE
  5
1FB
330
1F
100
AcDbEntity
  8
0
  6
Continuous
 62
     7
370
    25
100
AcDbLine
 10
6209.1365196968
 20
5140.9559700704
 30
0.0
 11
6210.7649909754
 21
5141.8961684015
 31
0.0
  0
ARC
  5
1FC
330
1F
100
AcDbEntity
  8
0
  6
Continuous
 62
     7
370
    25
100
AcDbCircle
 10
6209.2325196968
 20
5140.7896931928
 30
0.0
 40
0.1919999999999351
100
AcDbArc
 50
120.0000000002
 51
299.9999999999
  0
CIRCLE
  5
1FD
330
1F
100
AcDbEntity
  8
0
  6
Continuous
 62
     7
370
    25
100
AcDbCircle
 10
6211.5187553361
 20
5151.1994545928
 30
0.0
 40
7.743999999999687
  0
CIRCLE
  5
1FE
330
1F
100
AcDbEntity
  8
0
  6
Continuous
 62
     7
370
    25
100
AcDbCircle
 10
6211.5187553361
 20
5151.1994545928
 30
0.0
 40
7.359999999999673
  0
ARC
  5
1FF
330
1F
100
AcDbEntity
  8
0
  6
Continuous
 62
     7
370
    25
100
AcDbCircle
 10
6203.6467553361
 20
5146.0797844984
 30
0.0
 40
0.5760000000009313
100
AcDbArc
 50
0.0
 51
180.0
  0
LINE
  5
200
330
1F
100
AcDbEntity
  8
0
  6
Continuous
 62
     7
370
    25
100
AcDbLine
 10
6204.2227553361
 20
5143.829883664
 30
0.0
 11
6204.2227553361
 21
5146.0797844984
 31
0.0
  0
ARC
  5
201
330
1F
100
AcDbEntity
  8
0
  6
Continuous
 62
     7
370
    25
100
AcDbCircle
 10
6203.6467553361
 20
5143.829883664
 30
0.0
 40
0.5760000000009313
100
AcDbArc
 50
180.0
 51
0.0
  0
LINE
  5
202
330
1F
100
AcDbEntity
  8
0
  6
Continuous
 62
     7
370
    25
100
AcDbLine
 10
6203.0707553361
 20
5143.829883664
 30
0.0
 11
6203.0707553361
 21
5146.0797844984
 31
0.0
  0
LINE
  5
203
330
1F
100
AcDbEntity
  8
0
  6
Continuous
 62
     7
370
    25
100
AcDbLine
 10
6203.8387553361
 20
5143.829883664
 30
0.0
 11
6203.8387553361
 21
5146.0797844984
 31
0.0
  0
ARC
  5
204
330
1F
100
AcDbEntity
  8
0
  6
Continuous
 62
     7
370
    25
100
AcDbCircle
 10
6203.6467553361
 20
5146.0797844984
 30
0.0
 40
0.1920000000000073
100
AcDbArc
 50
0.0
 51
180.0
  0
LINE
  5
205
330
1F
100
AcDbEntity
  8
0
  6
Continuous
 62
     7
370
    25
100
AcDbLine
 10
6203.4547553361
 20
5143.829883664
 30
0.0
 11
6203.4547553361
 21
5146.0797844984
 31
0.0
  0
ARC
  5
206
330
1F
100
AcDbEntity
  8
0
  6
Continuous
 62
     7
370
    25
100
AcDbCircle
 10
6203.6467553361
 20
5143.829883664
 30
0.0
 40
0.1920000000000073
100
AcDbArc
 50
180.0
 51
0.0
  0
ARC
  5
207
330
1F
100
AcDbEntity
  8
0
  6
Continuous
 62
     7
370
    25
100
AcDbCircle
 10
6206.5815653496
 20
5140.5999906895
 30
0.0
 40
1.28000000000071
100
AcDbArc
 50
240.0
 51
60.0
  0
LINE
  5
208
330
1F
100
AcDbEntity
  8
0
  6
Continuous
 62
     7
370
    25
100
AcDbLine
 10
6204.1679453226
 20
5140.5154781726
 30
0.0
 11
6205.9415653496
 21
5139.4914781726
 31
0.0
  0
ARC
  5
209
330
1F
100
AcDbEntity
  8
0
  6
Continuous
 62
     7
370
    25
100
AcDbCircle
 10
6204.8079453226
 20
5141.6239906895
 30
0.0
 40
1.28000000000071
100
AcDbArc
 50
60.0
 51
240.0
  0
LINE
  5
20A
330
1F
100
AcDbEntity
  8
0
  6
Continuous
 62
     7
370
    25
100
AcDbLine
 10
6205.4479453226
 20
5142.7325032063
 30
0.0
 11
6207.2215653496
 21
5141.7085032063
 31
0.0
  0
LINE
  5
20B
330
1F
100
AcDbEntity
  8
0
  6
Continuous
 62
     7
370
    25
100
AcDbLine
 10
6204.4879453226
 20
5141.0697344311
 30
0.0
 11
6206.2615653496
 21
5140.0457344311
 31
0.0
  0
ARC
  5
20C
330
1F
100
AcDbEntity
  8
0
  6
Continuous
 62
     7
370
    25
100
AcDbCircle
 10
6206.5815653496
 20
5140.5999906895
 30
0.0
 40
0.6400000000005823
100
AcDbArc
 50
240.0
 51
60.0
  0
LINE
  5
20D
330
1F
100
AcDbEntity
  8
0
  6
Continuous
 62
     7
370
    25
100
AcDbLine
 10
6205.1279453226
 20
5142.1782469479
 30
0.0
 11
6206.9015653496
 21
5141.1542469479
 31
0.0
  0
ARC
  5
20E
330
1F
100
AcDbEntity
  8
0
  6
Continuous
 62
     7
370
    25
100
AcDbCircle
 10
6204.8079453226
 20
5141.6239906895
 30
0.0
 40
0.6400000000001276
100
AcDbArc
 50
60.0
 51
239.9999999999
  0
ARC
  5
20F
330
1F
100
AcDbEntity
  8
0
  6
Continuous
 62
     7
370
    25
100
AcDbCircle
 10
6206.3987553361
 20
5142.331354458
 30
0.0
 40
5.1200000000008
100
AcDbArc
 50
180.0
 51
300.0
  0
LINE
  5
210
330
1F
100
AcDbEntity
  8
0
  6
Continuous
 62
     7
370
    25
100
AcDbLine
 10
6201.2787553361
 20
5151.1994545928
 30
0.0
 11
6201.2787553361
 21
5142.331354458
 31
0.0
  0
LINE
  5
211
330
1F
100
AcDbEntity
  8
0
  6
Continuous
 62
     7
370
    25
100
AcDbLine
 10
6216.6387553361
 20
5142.331354458
 30
0.0
 11
6208.9587553361
 21
5137.8973043906
 31
0.0
  0
LINE
  5
212
330
1F
100
AcDbEntity
  8
0
  6
Continuous
 62
     7
370
    25
100
AcDbLine
 10
6216.3187553361
 20
5142.8856107164
 30
0.0
 11
6208.6387553361
 21
5138.451560649
 31
0.0
  0
ARC
  5
213
330
1F
100
AcDbEntity
  8
0
  6
Continuous
 62
     7
370
    25
100
AcDbCircle
 10
6211.5187553361
 20
5151.1994545928
 30
0.0
 40
9.600000000000703
100
AcDbArc
 50
300.0
 51
180.0
  0
LINE
  5
214
330
1F
100
AcDbEntity
  8
0
  6
Continuous
 62
     7
370
    25
100
AcDbLine
 10
6201.9187553361
 20
5151.1994545928
 30
0.0
 11
6201.9187553361
 21
5142.331354458
 31
0.0
  0
ARC
  5
215
330
1F
100
AcDbEntity
  8
0
  6
Continuous
 62
     7
370
    25
100
AcDbCircle
 10
6206.3987553361
 20
5142.331354458
 30
0.0
 40
4.480000000000473
100
AcDbArc
 50
180.0
 51
300.0
  0
ARC
  5
216
330
1F
100
AcDbEntity
  8
0
  6
Continuous
 62
     7
370
    25
100
AcDbCircle
 10
6211.5187553361
 20
5151.1994545928
 30
0.0
 40
10.23999999999978
100
AcDbArc
 50
300.0
 51
180.0
  0
LINE
  5
217
330
1F
100
AcDbEntity
  8
0
  6
Continuous
 62
     7
370
    25
100
AcDbLine
 10
6268.1187553361
 20
5174.6994545928
 30
0.0
 11
6268.1187553361
 21
5127.6994545928
 31
0.0
  0
ARC
  5
218
330
1F
100
AcDbEntity
  8
0
  6
Continuous
 62
     7
370
    25
100
AcDbCircle
 10
6271.0187553361
 20
5174.6994545928
 30
0.0
 40
2.899999999999636
100
AcDbArc
 50
90.0
 51
180.0
  0
LINE
  5
219
330
1F
100
AcDbEntity
  8
0
  6
Continuous
 62
     7
370
    25
100
AcDbLine
 10
6332.0187553361
 20
5177.5994545928
 30
0.0
 11
6271.0187553361
 21
5177.5994545928
 31
0.0
  0
ARC
  5
21A
330
1F
100
AcDbEntity
  8
0
  6
Continuous
 62
     7
370
    25
100
AcDbCircle
 10
6332.0187553361
 20
5174.6994545928
 30
0.0
 40
2.900000000000546
100
AcDbArc
 50
0.0
 51
90.0
  0
LINE
  5
21B
330
1F
100
AcDbEntity
  8
0
  6
Continuous
 62
     7
370
    25
100
AcDbLine
 10
6334.9187553361
 20
5127.6994545928
 30
0.0
 11
6334.9187553361
 21
5174.6994545928
 31
0.0
  0
ARC
  5
21C
330
1F
100
AcDbEntity
  8
0
  6
Continuous
 62
     7
370
    25
100
AcDbCircle
 10
6332.0187553361
 20
5127.6994545928
 30
0.0
 40
2.900000000000546
100
AcDbArc
 50
270.0
 51
0.0
  0
ARC
  5
21D
330
1F
100
AcDbEntity
  8
0
  6
Continuous
 62
     7
370
    25
100
AcDbCircle
 10
6271.0187553361
 20
5127.6994545928
 30
0.0
 40
2.899999999999636
100
AcDbArc
 50
180.0
 51
270.0
  0
LINE
  5
21E
330
1F
100
AcDbEntity
  8
0
  6
Continuous
 62
     7
370
    25
100
AcDbLine
 10
6271.0187553361
 20
5124.7994545928
 30
0.0
 11
6332.0187553361
 21
5124.7994545928
 31
0.0
  0
LINE
  5
21F
330
1F
100
AcDbEntity
  8
0
  6
Continuous
 62
     7
370
    25
100
AcDbLine
 10
6184.0187553361
 20
5078.6994545927
 30
0.0
 11
6184.0187553361
 21
5348.6994545928
 31
0.0
  0
LINE
  5
220
330
1F
100
AcDbEntity
  8
0
  6
Continuous
 62
     7
370
    25
100
AcDbLine
 10
6181.5187553361
 20
5077.876231288
 30
0.0
 11
6184.0187553361
 21
5078.6994545927
 31
0.0
  0
LINE
  5
221
330
1F
100
AcDbEntity
  8
0
  6
Continuous
 62
     7
370
    25
100
AcDbLine
 10
6181.5187553361
 20
5077.876231288
 30
0.0
 11
6181.5187553361
 21
5349.5226778974
 31
0.0
  0
LINE
  5
222
330
1F
100
AcDbEntity
  8
0
  6
Continuous
 62
     7
370
    25
100
AcDbLine
 10
6184.0187553361
 20
5348.6994545927
 30
0.0
 11
6181.5187553361
 21
5349.5226778974
 31
0.0
  0
LINE
  5
223
330
1F
100
AcDbEntity
  8
0
  6
Continuous
 62
     7
370
    25
100
AcDbLine
 10
6364.0187553361
 20
5078.6994545927
 30
0.0
 11
6184.0187553361
 21
5078.6994545927
 31
0.0
  0
LINE
  5
224
330
1F
100
AcDbEntity
  8
0
  6
Continuous
 62
     7
370
    25
100
AcDbLine
 10
6364.8419786409
 20
5076.1994545927
 30
0.0
 11
6364.0187553361
 21
5078.6994545927
 31
0.0
  0
LINE
  5
225
330
1F
100
AcDbEntity
  8
0
  6
Continuous
 62
     7
370
    25
100
AcDbLine
 10
6364.8419786409
 20
5076.1994545927
 30
0.0
 11
6183.1955320314
 21
5076.1994545927
 31
0.0
  0
LINE
  5
226
330
1F
100
AcDbEntity
  8
0
  6
Continuous
 62
     7
370
    25
100
AcDbLine
 10
6184.0187553361
 20
5078.6994545927
 30
0.0
 11
6183.1955320314
 21
5076.1994545927
 31
0.0
  0
LINE
  5
227
330
1F
100
AcDbEntity
  8
0
  6
Continuous
 62
     7
370
    25
100
AcDbLine
 10
6184.0187553361
 20
5348.6994545928
 30
0.0
 11
6364.0187553361
 21
5348.6994545928
 31
0.0
  0
LINE
  5
228
330
1F
100
AcDbEntity
  8
0
  6
Continuous
 62
     7
370
    25
100
AcDbLine
 10
6183.1955320314
 20
5351.1994545928
 30
0.0
 11
6184.0187553361
 21
5348.6994545928
 31
0.0
  0
LINE
  5
229
330
1F
100
AcDbEntity
  8
0
  6
Continuous
 62
     7
370
    25
100
AcDbLine
 10
6183.1955320314
 20
5351.1994545928
 30
0.0
 11
6364.8419786409
 21
5351.1994545928
 31
0.0
  0
LINE
  5
22A
330
1F
100
AcDbEntity
  8
0
  6
Continuous
 62
     7
370
    25
100
AcDbLine
 10
6364.0187553361
 20
5348.6994545928
 30
0.0
 11
6364.8419786409
 21
5351.1994545928
 31
0.0
  0
LINE
  5
22B
330
1F
100
AcDbEntity
  8
0
  6
Continuous
 62
     7
370
    25
100
AcDbLine
 10
6364.0187553361
 20
5348.6994545928
 30
0.0
 11
6364.0187553361
 21
5078.6994545927
 31
0.0
  0
LINE
  5
22C
330
1F
100
AcDbEntity
  8
0
  6
Continuous
 62
     7
370
    25
100
AcDbLine
 10
6268.0187553361
 20
5174.6994545928
 30
0.0
 11
6268.0187553361
 21
5127.6994545928
 31
0.0
  0
ARC
  5
22D
330
1F
100
AcDbEntity
  8
0
  6
Continuous
 62
     7
370
    25
100
AcDbCircle
 10
6271.0187553361
 20
5174.6994545928
 30
0.0
 40
3.000000000000909
100
AcDbArc
 50
90.0
 51
180.0
  0
ARC
  5
22E
330
1F
100
AcDbEntity
  8
0
  6
Continuous
 62
     7
370
    25
100
AcDbCircle
 10
6332.0187553361
 20
5174.6994545928
 30
0.0
 40
3.000000000000909
100
AcDbArc
 50
0.0
 51
90.0
  0
ARC
  5
22F
330
1F
100
AcDbEntity
  8
0
  6
Continuous
 62
     7
370
    25
100
AcDbCircle
 10
6332.0187553361
 20
5127.6994545928
 30
0.0
 40
3.0
100
AcDbArc
 50
270.0
 51
0.0
  0
LINE
  5
230
330
1F
100
AcDbEntity
  8
0
  6
Continuous
 62
     7
370
    25
100
AcDbLine
 10
6271.0187553361
 20
5124.6994545928
 30
0.0
 11
6332.0187553361
 21
5124.6994545928
 31
0.0
  0
LINE
  5
231
330
1F
100
AcDbEntity
  8
0
  6
Continuous
 62
     7
370
    25
100
AcDbLine
 10
6332.0187553361
 20
5177.6994545928
 30
0.0
 11
6271.0187553361
 21
5177.6994545928
 31
0.0
  0
LINE
  5
232
330
1F
100
AcDbEntity
  8
0
  6
Continuous
 62
     7
370
    25
100
AcDbLine
 10
6335.0187553361
 20
5127.6994545928
 30
0.0
 11
6335.0187553361
 21
5174.6994545928
 31
0.0
  0
ARC
  5
233
330
1F
100
AcDbEntity
  8
0
  6
Continuous
 62
     7
370
    25
100
AcDbCircle
 10
6271.0187553361
 20
5127.6994545928
 30
0.0
 40
3.0
100
AcDbArc
 50
180.0
 51
270.0
  0
LINE
  5
234
330
1F
100
AcDbEntity
  8
0
  6
Continuous
 62
     7
370
    25
100
AcDbLine
 10
6366.5187553361
 20
5349.5226778974
 30
0.0
 11
6364.0187553362
 21
5348.6994545927
 31
0.0
  0
LINE
  5
235
330
1F
100
AcDbEntity
  8
0
  6
Continuous
 62
     7
370
    25
100
AcDbLine
 10
6366.5187553361
 20
5349.5226778974
 30
0.0
 11
6366.5187553361
 21
5077.8762312881
 31
0.0
  0
LINE
  5
236
330
1F
100
AcDbEntity
  8
0
  6
Continuous
 62
     7
370
    25
100
AcDbLine
 10
6364.0187553361
 20
5078.6994545927
 30
0.0
 11
6366.5187553361
 21
5077.8762312881
 31
0.0
  0
LINE
  5
237
330
1F
100
AcDbEntity
  8
0
  6
Continuous
 62
     7
370
    25
100
AcDbLine
 10
6181.5187553361
 20
5077.1994545927
 30
0.0
 11
6184.0187553361
 21
5078.6994545927
 31
0.0
  0
LINE
  5
238
330
1F
100
AcDbEntity
  8
0
  6
Continuous
 62
     7
370
    25
100
AcDbLine
 10
6184.0187553361
 20
5078.6994545927
 30
0.0
 11
6182.5187553361
 21
5076.1994545927
 31
0.0
  0
ARC
  5
239
330
1F
100
AcDbEntity
  8
0
  6
Continuous
 62
     7
370
    25
100
AcDbCircle
 10
6182.5187553361
 20
5077.1994545927
 30
0.0
 40
1.0
100
AcDbArc
 50
180.0
 51
270.0
  0
LINE
  5
23A
330
1F
100
AcDbEntity
  8
0
  6
Continuous
 62
     7
370
    25
100
AcDbLine
 10
6181.5187553361
 20
5077.876231288
 30
0.0
 11
6181.5187553361
 21
5077.1994545927
 31
0.0
  0
LINE
  5
23B
330
1F
100
AcDbEntity
  8
0
  6
Continuous
 62
     7
370
    25
100
AcDbLine
 10
6366.5187553361
 20
5350.1994545928
 30
0.0
 11
6364.0187553361
 21
5348.6994545928
 31
0.0
  0
LINE
  5
23C
330
1F
100
AcDbEntity
  8
0
  6
Continuous
 62
     7
370
    25
100
AcDbLine
 10
6366.5187553361
 20
5349.5226778974
 30
0.0
 11
6366.5187553361
 21
5350.1994545928
 31
0.0
  0
LINE
  5
23D
330
1F
100
AcDbEntity
  8
0
  6
Continuous
 62
     7
370
    25
100
AcDbLine
 10
6183.1955320314
 20
5076.1994545927
 30
0.0
 11
6182.5187553361
 21
5076.1994545927
 31
0.0
  0
LINE
  5
23E
330
1F
100
AcDbEntity
  8
0
  6
Continuous
 62
     7
370
    25
100
AcDbLine
 10
6365.5187553361
 20
5076.1994545927
 30
0.0
 11
6364.0187553361
 21
5078.6994545927
 31
0.0
  0
LINE
  5
23F
330
1F
100
AcDbEntity
  8
0
  6
Continuous
 62
     7
370
    25
100
AcDbLine
 10
6364.8419786409
 20
5076.1994545927
 30
0.0
 11
6365.5187553361
 21
5076.1994545927
 31
0.0
  0
LINE
  5
240
330
1F
100
AcDbEntity
  8
0
  6
Continuous
 62
     7
370
    25
100
AcDbLine
 10
6181.5187553361
 20
5349.5226778974
 30
0.0
 11
6181.5187553361
 21
5350.1994545928
 31
0.0
  0
LINE
  5
241
330
1F
100
AcDbEntity
  8
0
  6
Continuous
 62
     7
370
    25
100
AcDbLine
 10
6184.0187553361
 20
5348.6994545927
 30
0.0
 11
6181.5187553361
 21
5350.1994545928
 31
0.0
  0
LINE
  5
242
330
1F
100
AcDbEntity
  8
0
  6
Continuous
 62
     7
370
    25
100
AcDbLine
 10
6366.5187553361
 20
5077.8762312881
 30
0.0
 11
6366.5187553361
 21
5077.1994545927
 31
0.0
  0
LINE
  5
243
330
1F
100
AcDbEntity
  8
0
  6
Continuous
 62
     7
370
    25
100
AcDbLine
 10
6364.0187553361
 20
5078.6994545927
 30
0.0
 11
6366.5187553361
 21
5077.1994545927
 31
0.0
  0
ARC
  5
244
330
1F
100
AcDbEntity
  8
0
  6
Continuous
 62
     7
370
    25
100
AcDbCircle
 10
6365.5187553361
 20
5077.1994545927
 30
0.0
 40
1.000000000000909
100
AcDbArc
 50
270.0
 51
0.0
  0
ARC
  5
245
330
1F
100
AcDbEntity
  8
0
  6
Continuous
 62
     7
370
    25
100
AcDbCircle
 10
6365.5187553361
 20
5350.1994545928
 30
0.0
 40
1.000000000000909
100
AcDbArc
 50
0.0
 51
90.0
  0
LINE
  5
246
330
1F
100
AcDbEntity
  8
0
  6
Continuous
 62
     7
370
    25
100
AcDbLine
 10
6364.0187553361
 20
5348.6994545928
 30
0.0
 11
6365.5187553361
 21
5351.1994545928
 31
0.0
  0
LINE
  5
247
330
1F
100
AcDbEntity
  8
0
  6
Continuous
 62
     7
370
    25
100
AcDbLine
 10
6182.5187553361
 20
5351.1994545928
 30
0.0
 11
6184.0187553361
 21
5348.6994545927
 31
0.0
  0
ARC
  5
248
330
1F
100
AcDbEntity
  8
0
  6
Continuous
 62
     7
370
    25
100
AcDbCircle
 10
6182.5187553361
 20
5350.1994545928
 30
0.0
 40
1.000000000000909
100
AcDbArc
 50
90.0
 51
180.0
  0
LINE
  5
249
330
1F
100
AcDbEntity
  8
0
  6
Continuous
 62
     7
370
    25
100
AcDbLine
 10
6183.1955320314
 20
5351.1994545928
 30
0.0
 11
6182.5187553361
 21
5351.1994545928
 31
0.0
  0
LINE
  5
24A
330
1F
100
AcDbEntity
  8
0
  6
Continuous
 62
     7
370
    25
100
AcDbLine
 10
6364.8419786409
 20
5351.1994545928
 30
0.0
 11
6365.5187553361
 21
5351.1994545928
 31
0.0
  0
LINE
  5
24B
330
1F
100
AcDbEntity
  8
0
  6
Continuous
 62
     7
370
    25
100
AcDbLine
 10
6673.2170859787
 20
5134.5765606031
 30
0.0
 11
6673.3670859787
 21
5134.5765606031
 31
0.0
  0
LINE
  5
24C
330
1F
100
AcDbEntity
  8
0
  6
Continuous
 62
     7
370
    25
100
AcDbLine
 10
6673.3670859787
 20
5167.8223485824
 30
0.0
 11
6673.2170859787
 21
5167.8223485824
 31
0.0
  0
LINE
  5
24D
330
1F
100
AcDbEntity
  8
0
  6
Continuous
 62
     7
370
    25
100
AcDbLine
 10
6673.2670859787
 20
5300.0994545928
 30
0.0
 11
6673.2170859787
 21
5300.0994545928
 31
0.0
  0
LINE
  5
24E
330
1F
100
AcDbEntity
  8
0
  6
Continuous
 62
     7
370
    25
100
AcDbLine
 10
6673.2670859787
 20
5283.9807187123
 30
0.0
 11
6673.2170859787
 21
5283.9807187123
 31
0.0
  0
LINE
  5
24F
330
1F
100
AcDbEntity
  8
0
  6
Continuous
 62
     7
370
    25
100
AcDbLine
 10
6673.2170859787
 20
5272.5958606981
 30
0.0
 11
6673.2670859787
 21
5272.5958606981
 31
0.0
  0
LINE
  5
250
330
1F
100
AcDbEntity
  8
0
  6
Continuous
 62
     7
370
    25
100
AcDbLine
 10
6676.2170859787
 20
5283.6994545928
 30
0.0
 11
6676.3170859787
 21
5283.6994545928
 31
0.0
  0
LINE
  5
251
330
1F
100
AcDbEntity
  8
0
  6
Continuous
 62
     7
370
    25
100
AcDbLine
 10
6676.3170859787
 20
5288.6994545928
 30
0.0
 11
6676.2170859787
 21
5288.6994545928
 31
0.0
  0
ARC
  5
252
330
1F
100
AcDbEntity
  8
0
  6
Continuous
 62
     7
370
    25
100
AcDbCircle
 10
6676.3170859787
 20
5286.1994545928
 30
0.0
 40
2.5
100
AcDbArc
 50
270.0
 51
90.0
  0
LINE
  5
253
330
1F
100
AcDbEntity
  8
0
  6
Continuous
 62
     7
370
    25
100
AcDbLine
 10
6676.2170859787
 20
5148.6994545928
 30
0.0
 11
6676.3170859787
 21
5148.6994545928
 31
0.0
  0
LINE
  5
254
330
1F
100
AcDbEntity
  8
0
  6
Continuous
 62
     7
370
    25
100
AcDbLine
 10
6676.3170859787
 20
5153.6994545928
 30
0.0
 11
6676.2170859787
 21
5153.6994545928
 31
0.0
  0
ARC
  5
255
330
1F
100
AcDbEntity
  8
0
  6
Continuous
 62
     7
370
    25
100
AcDbCircle
 10
6676.3170859787
 20
5151.1994545928
 30
0.0
 40
2.5
100
AcDbArc
 50
270.0
 51
90.0
  0
LINE
  5
256
330
1F
100
AcDbEntity
  8
0
  6
Continuous
 62
     7
370
    25
100
AcDbLine
 10
6676.2170859787
 20
5253.6994545928
 30
0.0
 11
6676.3170859787
 21
5253.6994545928
 31
0.0
  0
LINE
  5
257
330
1F
100
AcDbEntity
  8
0
  6
Continuous
 62
     7
370
    25
100
AcDbLine
 10
6676.3170859787
 20
5258.6994545928
 30
0.0
 11
6676.2170859787
 21
5258.6994545928
 31
0.0
  0
ARC
  5
258
330
1F
100
AcDbEntity
  8
0
  6
Continuous
 62
     7
370
    25
100
AcDbCircle
 10
6676.3170859787
 20
5256.1994545928
 30
0.0
 40
2.500000000000909
100
AcDbArc
 50
270.0
 51
90.0
  0
LINE
  5
259
330
1F
100
AcDbEntity
  8
0
  6
Continuous
 62
     7
370
    25
100
AcDbLine
 10
6673.2670859787
 20
5281.1994545928
 30
0.0
 11
6674.2170859787
 21
5281.1994545928
 31
0.0
  0
LINE
  5
25A
330
1F
100
AcDbEntity
  8
0
  6
Continuous
 62
     7
370
    25
100
AcDbLine
 10
6674.2170859787
 20
5291.1994545928
 30
0.0
 11
6673.2670859787
 21
5291.1994545928
 31
0.0
  0
LINE
  5
25B
330
1F
100
AcDbEntity
  8
0
  6
Continuous
 62
     7
370
    25
100
AcDbLine
 10
6674.2170859787
 20
5281.1994545928
 30
0.0
 11
6676.2170859787
 21
5283.1994545928
 31
0.0
  0
LINE
  5
25C
330
1F
100
AcDbEntity
  8
0
  6
Continuous
 62
     7
370
    25
100
AcDbLine
 10
6676.2170859787
 20
5289.1994545928
 30
0.0
 11
6674.2170859787
 21
5291.1994545928
 31
0.0
  0
LINE
  5
25D
330
1F
100
AcDbEntity
  8
0
  6
Continuous
 62
     7
370
    25
100
AcDbLine
 10
6673.2670859787
 20
5251.1994545928
 30
0.0
 11
6674.2170859787
 21
5251.1994545928
 31
0.0
  0
LINE
  5
25E
330
1F
100
AcDbEntity
  8
0
  6
Continuous
 62
     7
370
    25
100
AcDbLine
 10
6674.2170859787
 20
5261.1994545928
 30
0.0
 11
6673.2670859787
 21
5261.1994545928
 31
0.0
  0
LINE
  5
25F
330
1F
100
AcDbEntity
  8
0
  6
Continuous
 62
     7
370
    25
100
AcDbLine
 10
6674.2170859787
 20
5251.1994545928
 30
0.0
 11
6676.2170859787
 21
5253.1994545928
 31
0.0
  0
LINE
  5
260
330
1F
100
AcDbEntity
  8
0
  6
Continuous
 62
     7
370
    25
100
AcDbLine
 10
6676.2170859787
 20
5259.1994545928
 30
0.0
 11
6674.2170859787
 21
5261.1994545928
 31
0.0
  0
LINE
  5
261
330
1F
100
AcDbEntity
  8
0
  6
Continuous
 62
     7
370
    25
100
AcDbLine
 10
6673.2490859787
 20
5146.1994545928
 30
0.0
 11
6674.2170859787
 21
5146.1994545928
 31
0.0
  0
LINE
  5
262
330
1F
100
AcDbEntity
  8
0
  6
Continuous
 62
     7
370
    25
100
AcDbLine
 10
6674.2170859787
 20
5156.1994545928
 30
0.0
 11
6673.2490859787
 21
5156.1994545928
 31
0.0
  0
LINE
  5
263
330
1F
100
AcDbEntity
  8
0
  6
Continuous
 62
     7
370
    25
100
AcDbLine
 10
6674.2170859787
 20
5146.1994545928
 30
0.0
 11
6676.2170859787
 21
5148.1994545928
 31
0.0
  0
LINE
  5
264
330
1F
100
AcDbEntity
  8
0
  6
Continuous
 62
     7
370
    25
100
AcDbLine
 10
6676.2170859787
 20
5154.1994545928
 30
0.0
 11
6674.2170859787
 21
5156.1994545928
 31
0.0
  0
LINE
  5
265
330
1F
100
AcDbEntity
  8
0
  6
Continuous
 62
     7
370
    25
100
AcDbLine
 10
6673.2170859787
 20
5225.8494545928
 30
0.0
 11
6675.2170859787
 21
5227.8494545928
 31
0.0
  0
LINE
  5
266
330
1F
100
AcDbEntity
  8
0
  6
Continuous
 62
     7
370
    25
100
AcDbLine
 10
6675.2170859787
 20
5314.5494545928
 30
0.0
 11
6673.2170859787
 21
5316.5494545928
 31
0.0
  0
LINE
  5
267
330
1F
100
AcDbEntity
  8
0
  6
Continuous
 62
     7
370
    25
100
AcDbLine
 10
6675.2170859787
 20
5228.9494545928
 30
0.0
 11
6676.2670859787
 21
5228.9494545928
 31
0.0
  0
LINE
  5
268
330
1F
100
AcDbEntity
  8
0
  6
Continuous
 62
     7
370
    25
100
AcDbLine
 10
6676.2670859787
 20
5313.4494545928
 30
0.0
 11
6675.2170859787
 21
5313.4494545928
 31
0.0
  0
ARC
  5
269
330
1F
100
AcDbEntity
  8
0
  6
Continuous
 62
     7
370
    25
100
AcDbCircle
 10
6676.2670859787
 20
5233.7827879261
 30
0.0
 40
4.83333333333303
100
AcDbArc
 50
270.0
 51
316.3971810273
  0
ARC
  5
26A
330
1F
100
AcDbEntity
  8
0
  6
Continuous
 62
     7
370
    25
100
AcDbCircle
 10
6676.2670859787
 20
5308.6161212594
 30
0.0
 40
4.83333333333303
100
AcDbArc
 50
43.6028189727
 51
90.0
  0
LINE
  5
26B
330
1F
100
AcDbEntity
  8
0
  6
Continuous
 62
     7
370
    25
100
AcDbLine
 10
6673.2170859787
 20
5137.211354458
 30
0.0
 11
6673.2490859787
 21
5137.211354458
 31
0.0
  0
LINE
  5
26C
330
1F
100
AcDbEntity
  8
0
  6
Continuous
 62
     7
370
    25
100
AcDbLine
 10
6673.2490859787
 20
5161.4394545928
 30
0.0
 11
6673.2170859787
 21
5161.4394545928
 31
0.0
  0
LINE
  5
26D
330
1F
100
AcDbEntity
  8
0
  6
Continuous
 62
     7
370
    25
100
AcDbLine
 10
6673.2170859787
 20
5248.8307616739
 30
0.0
 11
6673.2670859787
 21
5248.8307616739
 31
0.0
  0
LINE
  5
26E
330
1F
100
AcDbEntity
  8
0
  6
Continuous
 62
     7
370
    25
100
AcDbLine
 10
6673.2170859787
 20
5263.5328467941
 30
0.0
 11
6673.2670859787
 21
5263.5328467941
 31
0.0
  0
LINE
  5
26F
330
1F
100
AcDbEntity
  8
0
  6
Continuous
 62
     7
370
    25
100
AcDbLine
 10
6673.2670859787
 20
5263.5328467941
 30
0.0
 11
6673.2670859787
 21
5248.8307616739
 31
0.0
  0
LINE
  5
270
330
1F
100
AcDbEntity
  8
0
  6
Continuous
 62
     7
370
    25
100
AcDbLine
 10
6673.2170859787
 20
5247.43130719
 30
0.0
 11
6673.2670859787
 21
5247.43130719
 31
0.0
  0
LINE
  5
271
330
1F
100
AcDbEntity
  8
0
  6
Continuous
 62
     7
370
    25
100
AcDbLine
 10
6673.2170859787
 20
5264.93130719
 30
0.0
 11
6673.2670859787
 21
5264.93130719
 31
0.0
  0
LINE
  5
272
330
1F
100
AcDbEntity
  8
0
  6
Continuous
 62
     7
370
    25
100
AcDbLine
 10
6673.2170859787
 20
5132.8994545928
 30
0.0
 11
6673.3670859787
 21
5132.8994545928
 31
0.0
  0
LINE
  5
273
330
1F
100
AcDbEntity
  8
0
  6
Continuous
 62
     7
370
    25
100
AcDbLine
 10
6673.3670859787
 20
5132.4494545928
 30
0.0
 11
6673.2170859787
 21
5132.4494545928
 31
0.0
  0
LINE
  5
274
330
1F
100
AcDbEntity
  8
0
  6
Continuous
 62
     7
370
    25
100
AcDbLine
 10
6673.3670859787
 20
5132.8994545928
 30
0.0
 11
6673.3670859787
 21
5132.4494545928
 31
0.0
  0
LINE
  5
275
330
1F
100
AcDbEntity
  8
0
  6
Continuous
 62
     7
370
    25
100
AcDbLine
 10
6673.3670859787
 20
5132.8994545928
 30
0.0
 11
6673.3670859787
 21
5134.5765606031
 31
0.0
  0
LINE
  5
276
330
1F
100
AcDbEntity
  8
0
  6
Continuous
 62
     7
370
    25
100
AcDbLine
 10
6673.3670859787
 20
5169.4994545928
 30
0.0
 11
6673.2170859787
 21
5169.4994545928
 31
0.0
  0
LINE
  5
277
330
1F
100
AcDbEntity
  8
0
  6
Continuous
 62
     7
370
    25
100
AcDbLine
 10
6673.3670859787
 20
5167.8223485824
 30
0.0
 11
6673.3670859787
 21
5169.4994545928
 31
0.0
  0
LINE
  5
278
330
1F
100
AcDbEntity
  8
0
  6
Continuous
 62
     7
370
    25
100
AcDbLine
 10
6673.2170859787
 20
5169.9494545928
 30
0.0
 11
6673.3670859787
 21
5169.9494545928
 31
0.0
  0
LINE
  5
279
330
1F
100
AcDbEntity
  8
0
  6
Continuous
 62
     7
370
    25
100
AcDbLine
 10
6673.3670859787
 20
5169.9494545928
 30
0.0
 11
6673.3670859787
 21
5169.4994545928
 31
0.0
  0
LINE
  5
27A
330
1F
100
AcDbEntity
  8
0
  6
Continuous
 62
     7
370
    25
100
AcDbLine
 10
6673.2170859787
 20
5134.5814350805
 30
0.0
 11
6673.3670859787
 21
5134.5814350805
 31
0.0
  0
LINE
  5
27B
330
1F
100
AcDbEntity
  8
0
  6
Continuous
 62
     7
370
    25
100
AcDbLine
 10
6673.3670859787
 20
5146.1994545928
 30
0.0
 11
6673.3670859787
 21
5134.5814350805
 31
0.0
  0
LINE
  5
27C
330
1F
100
AcDbEntity
  8
0
  6
Continuous
 62
     7
370
    25
100
AcDbLine
 10
6673.3670859787
 20
5134.5814350805
 30
0.0
 11
6673.3670859787
 21
5134.5765606031
 31
0.0
  0
LINE
  5
27D
330
1F
100
AcDbEntity
  8
0
  6
Continuous
 62
     7
370
    25
100
AcDbLine
 10
6673.3670859787
 20
5167.817474105
 30
0.0
 11
6673.2170859787
 21
5167.817474105
 31
0.0
  0
LINE
  5
27E
330
1F
100
AcDbEntity
  8
0
  6
Continuous
 62
     7
370
    25
100
AcDbLine
 10
6673.3670859787
 20
5167.817474105
 30
0.0
 11
6673.3670859787
 21
5156.1994545928
 31
0.0
  0
LINE
  5
27F
330
1F
100
AcDbEntity
  8
0
  6
Continuous
 62
     7
370
    25
100
AcDbLine
 10
6673.3670859787
 20
5167.8223485824
 30
0.0
 11
6673.3670859787
 21
5167.817474105
 31
0.0
  0
LINE
  5
280
330
1F
100
AcDbEntity
  8
0
  6
Continuous
 62
     7
370
    25
100
AcDbLine
 10
6673.2870859787
 20
5158.7538597729
 30
0.0
 11
6673.2870859787
 21
5156.1994545928
 31
0.0
  0
LINE
  5
281
330
1F
100
AcDbEntity
  8
0
  6
Continuous
 62
     7
370
    25
100
AcDbLine
 10
6673.2870859787
 20
5146.1994545928
 30
0.0
 11
6673.2870859787
 21
5143.6450494127
 31
0.0
  0
LINE
  5
282
330
1F
100
AcDbEntity
  8
0
  6
Continuous
 62
     7
370
    25
100
AcDbLine
 10
6673.2870859787
 20
5143.6450494127
 30
0.0
 11
6673.2490859787
 21
5143.6450494127
 31
0.0
  0
LINE
  5
283
330
1F
100
AcDbEntity
  8
0
  6
Continuous
 62
     7
370
    25
100
AcDbLine
 10
6673.2870859787
 20
5158.7538597729
 30
0.0
 11
6673.2490859787
 21
5158.7538597729
 31
0.0
  0
LINE
  5
284
330
1F
100
AcDbEntity
  8
0
  6
Continuous
 62
     7
370
    25
100
AcDbLine
 10
6673.2870859787
 20
5278.6450494127
 30
0.0
 11
6673.2670859787
 21
5278.6450494127
 31
0.0
  0
LINE
  5
285
330
1F
100
AcDbEntity
  8
0
  6
Continuous
 62
     7
370
    25
100
AcDbLine
 10
6673.2870859787
 20
5293.7538597729
 30
0.0
 11
6673.2670859787
 21
5293.7538597729
 31
0.0
  0
LINE
  5
286
330
1F
100
AcDbEntity
  8
0
  6
Continuous
 62
     7
370
    25
100
AcDbLine
 10
6673.2870859787
 20
5293.7538597729
 30
0.0
 11
6673.2870859787
 21
5291.1994545928
 31
0.0
  0
LINE
  5
287
330
1F
100
AcDbEntity
  8
0
  6
Continuous
 62
     7
370
    25
100
AcDbLine
 10
6673.2870859787
 20
5281.1994545928
 30
0.0
 11
6673.2870859787
 21
5278.6450494127
 31
0.0
  0
LINE
  5
288
330
1F
100
AcDbEntity
  8
0
  6
Continuous
 62
     7
370
    25
100
AcDbLine
 10
6673.2870859787
 20
5263.7538597729
 30
0.0
 11
6673.2870859787
 21
5261.1994545928
 31
0.0
  0
LINE
  5
289
330
1F
100
AcDbEntity
  8
0
  6
Continuous
 62
     7
370
    25
100
AcDbLine
 10
6673.2870859787
 20
5251.1994545928
 30
0.0
 11
6673.2870859787
 21
5248.6450494127
 31
0.0
  0
LINE
  5
28A
330
1F
100
AcDbEntity
  8
0
  6
Continuous
 62
     7
370
    25
100
AcDbLine
 10
6673.2670859787
 20
5300.0994545928
 30
0.0
 11
6673.2670859787
 21
5283.9807187123
 31
0.0
  0
LINE
  5
28B
330
1F
100
AcDbEntity
  8
0
  6
Continuous
 62
     7
370
    25
100
AcDbLine
 10
6673.2670859787
 20
5283.9436130919
 30
0.0
 11
6673.2170859787
 21
5283.9436130919
 31
0.0
  0
LINE
  5
28C
330
1F
100
AcDbEntity
  8
0
  6
Continuous
 62
     7
370
    25
100
AcDbLine
 10
6673.2670859787
 20
5278.5936130919
 30
0.0
 11
6673.2170859787
 21
5278.5936130919
 31
0.0
  0
LINE
  5
28D
330
1F
100
AcDbEntity
  8
0
  6
Continuous
 62
     7
370
    25
100
AcDbLine
 10
6673.2670859787
 20
5283.9436130919
 30
0.0
 11
6673.2670859787
 21
5278.5936130919
 31
0.0
  0
LINE
  5
28E
330
1F
100
AcDbEntity
  8
0
  6
Continuous
 62
     7
370
    25
100
AcDbLine
 10
6673.2670859787
 20
5272.600149548
 30
0.0
 11
6673.2170859787
 21
5272.600149548
 31
0.0
  0
LINE
  5
28F
330
1F
100
AcDbEntity
  8
0
  6
Continuous
 62
     7
370
    25
100
AcDbLine
 10
6673.2670859787
 20
5278.5936130919
 30
0.0
 11
6673.2670859787
 21
5272.600149548
 31
0.0
  0
LINE
  5
290
330
1F
100
AcDbEntity
  8
0
  6
Continuous
 62
     7
370
    25
100
AcDbLine
 10
6673.2670859787
 20
5283.9807187123
 30
0.0
 11
6673.2670859787
 21
5283.9436130919
 31
0.0
  0
LINE
  5
291
330
1F
100
AcDbEntity
  8
0
  6
Continuous
 62
     7
370
    25
100
AcDbLine
 10
6673.2670859787
 20
5272.600149548
 30
0.0
 11
6673.2670859787
 21
5272.5958606981
 31
0.0
  0
LINE
  5
292
330
1F
100
AcDbEntity
  8
0
  6
Continuous
 62
     7
370
    25
100
AcDbLine
 10
6674.2170859787
 20
5281.1994545928
 30
0.0
 11
6674.2170859787
 21
5291.1994545928
 31
0.0
  0
LINE
  5
293
330
1F
100
AcDbEntity
  8
0
  6
Continuous
 62
     7
370
    25
100
AcDbLine
 10
6676.2170859787
 20
5283.1994545928
 30
0.0
 11
6676.2170859787
 21
5289.1994545928
 31
0.0
  0
LINE
  5
294
330
1F
100
AcDbEntity
  8
0
  6
Continuous
 62
     7
370
    25
100
AcDbLine
 10
6674.2170859787
 20
5251.1994545928
 30
0.0
 11
6674.2170859787
 21
5261.1994545928
 31
0.0
  0
LINE
  5
295
330
1F
100
AcDbEntity
  8
0
  6
Continuous
 62
     7
370
    25
100
AcDbLine
 10
6676.2170859787
 20
5253.1994545928
 30
0.0
 11
6676.2170859787
 21
5259.1994545928
 31
0.0
  0
LINE
  5
296
330
1F
100
AcDbEntity
  8
0
  6
Continuous
 62
     7
370
    25
100
AcDbLine
 10
6674.2170859787
 20
5146.1994545928
 30
0.0
 11
6674.2170859787
 21
5156.1994545928
 31
0.0
  0
LINE
  5
297
330
1F
100
AcDbEntity
  8
0
  6
Continuous
 62
     7
370
    25
100
AcDbLine
 10
6676.2170859787
 20
5148.1994545928
 30
0.0
 11
6676.2170859787
 21
5154.1994545928
 31
0.0
  0
LINE
  5
298
330
1F
100
AcDbEntity
  8
0
  6
Continuous
 62
     7
370
    25
100
AcDbLine
 10
6675.2170859787
 20
5274.3410738888
 30
0.0
 11
6675.2170859787
 21
5282.1994545928
 31
0.0
  0
LINE
  5
299
330
1F
100
AcDbEntity
  8
0
  6
Continuous
 62
     7
370
    25
100
AcDbLine
 10
6675.2170859787
 20
5290.1994545928
 30
0.0
 11
6675.2170859787
 21
5314.5494545928
 31
0.0
  0
LINE
  5
29A
330
1F
100
AcDbEntity
  8
0
  6
Continuous
 62
     7
370
    25
100
AcDbLine
 10
6675.2170859787
 20
5227.8494545928
 30
0.0
 11
6675.2170859787
 21
5252.1994545928
 31
0.0
  0
LINE
  5
29B
330
1F
100
AcDbEntity
  8
0
  6
Continuous
 62
     7
370
    25
100
AcDbLine
 10
6675.2170859787
 20
5260.1994545928
 30
0.0
 11
6675.2170859787
 21
5274.3410738888
 31
0.0
  0
LINE
  5
29C
330
1F
100
AcDbEntity
  8
0
  6
Continuous
 62
     7
370
    25
100
AcDbLine
 10
6679.7670859787
 20
5271.1994545928
 30
0.0
 11
6679.7670859787
 21
5311.9494545928
 31
0.0
  0
LINE
  5
29D
330
1F
100
AcDbEntity
  8
0
  6
Continuous
 62
     7
370
    25
100
AcDbLine
 10
6679.7670859787
 20
5230.4494545928
 30
0.0
 11
6679.7670859787
 21
5271.1994545928
 31
0.0
  0
LINE
  5
29E
330
1F
100
AcDbEntity
  8
0
  6
Continuous
 62
     7
370
    25
100
AcDbLine
 10
6673.2170859787
 20
5142.331354458
 30
0.0
 11
6673.2490859787
 21
5142.331354458
 31
0.0
  0
LINE
  5
29F
330
1F
100
AcDbEntity
  8
0
  6
Continuous
 62
     7
370
    25
100
AcDbLine
 10
6673.2490859787
 20
5137.211354458
 30
0.0
 11
6673.2490859787
 21
5142.331354458
 31
0.0
  0
LINE
  5
2A0
330
1F
100
AcDbEntity
  8
0
  6
Continuous
 62
     7
370
    25
100
AcDbLine
 10
6673.2170859787
 20
5151.1994545928
 30
0.0
 11
6673.2490859787
 21
5151.1994545928
 31
0.0
  0
LINE
  5
2A1
330
1F
100
AcDbEntity
  8
0
  6
Continuous
 62
     7
370
    25
100
AcDbLine
 10
6673.2490859787
 20
5151.1994545928
 30
0.0
 11
6673.2490859787
 21
5142.331354458
 31
0.0
  0
LINE
  5
2A2
330
1F
100
AcDbEntity
  8
0
  6
Continuous
 62
     7
370
    25
100
AcDbLine
 10
6673.2490859787
 20
5151.1994545928
 30
0.0
 11
6673.2490859787
 21
5161.4394545928
 31
0.0
  0
ELLIPSE
  5
2A3
330
1F
100
AcDbEntity
  8
0
  6
Continuous
 62
     7
370
    25
100
AcDbEllipse
 10
6567.7170859787
 20
5348.5226778974
 30
0.0
 11
2.499999999999091
 21
0.0
 31
0.0
210
0.0
220
0.0
230
1.0
 40
0.4
 41
1.570796326794897
 42
3.141592653570694
  0
LINE
  5
2A4
330
1F
100
AcDbEntity
  8
0
  6
Continuous
 62
     7
370
    25
100
AcDbLine
 10
6567.7170859787
 20
5077.876231288
 30
0.0
 11
6567.7170859787
 21
5349.5226778974
 31
0.0
  0
ELLIPSE
  5
2A5
330
1F
100
AcDbEntity
  8
0
  6
Continuous
 62
     7
370
    25
100
AcDbEllipse
 10
6567.7170859787
 20
5078.876231288
 30
0.0
 11
2.499999999999091
 21
0.0
 31
0.0
210
0.0
220
0.0
230
1.0
 40
0.4
 41
3.141592653569785
 42
4.712388980384695
  0
LINE
  5
2A6
330
1F
100
AcDbEntity
  8
0
  6
Continuous
 62
     7
370
    25
100
AcDbLine
 10
6565.2170859787
 20
5078.876231288
 30
0.0
 11
6565.2170859787
 21
5348.5226778974
 31
0.0
  0
LINE
  5
2A7
330
1F
100
AcDbEntity
  8
0
  6
Continuous
 62
     7
370
    25
100
AcDbLine
 10
6565.2170859787
 20
5348.5226778974
 30
0.0
 11
6565.2170859787
 21
5348.6994545928
 31
0.0
  0
ELLIPSE
  5
2A8
330
1F
100
AcDbEntity
  8
0
  6
Continuous
 62
     7
370
    25
100
AcDbEllipse
 10
6567.7170859787
 20
5348.6994545928
 30
0.0
 11
2.499999999999091
 21
0.0
 31
0.0
210
0.0
220
0.0
230
1.0
 40
0.6
 41
1.570796326794897
 42
3.141592653589793
  0
LINE
  5
2A9
330
1F
100
AcDbEntity
  8
0
  6
Continuous
 62
     7
370
    25
100
AcDbLine
 10
6567.7170859787
 20
5349.5226778974
 30
0.0
 11
6567.7170859787
 21
5350.1994545928
 31
0.0
  0
LINE
  5
2AA
330
1F
100
AcDbEntity
  8
0
  6
Continuous
 62
     7
370
    25
100
AcDbLine
 10
6670.7170859787
 20
5349.5226778974
 30
0.0
 11
6567.7170859787
 21
5349.5226778974
 31
0.0
  0
LINE
  5
2AB
330
1F
100
AcDbEntity
  8
0
  6
Continuous
 62
     7
370
    25
100
AcDbLine
 10
6670.7170859787
 20
5350.1994545928
 30
0.0
 11
6567.7170859787
 21
5350.1994545928
 31
0.0
  0
LINE
  5
2AC
330
1F
100
AcDbEntity
  8
0
  6
Continuous
 62
     7
370
    25
100
AcDbLine
 10
6670.7170859787
 20
5349.5226778974
 30
0.0
 11
6670.7170859787
 21
5350.1994545928
 31
0.0
  0
LINE
  5
2AD
330
1F
100
AcDbEntity
  8
0
  6
Continuous
 62
     7
370
    25
100
AcDbLine
 10
6567.7170859787
 20
5351.1994545928
 30
0.0
 11
6567.7170859787
 21
5350.1994545928
 31
0.0
  0
ARC
  5
2AE
330
1F
100
AcDbEntity
  8
0
  6
Continuous
 62
     7
370
    25
100
AcDbCircle
 10
6567.7170859787
 20
5348.6994545928
 30
0.0
 40
2.500000000000909
100
AcDbArc
 50
90.0
 51
180.0
  0
LINE
  5
2AF
330
1F
100
AcDbEntity
  8
0
  6
Continuous
 62
     7
370
    25
100
AcDbLine
 10
6670.7170859787
 20
5077.876231288
 30
0.0
 11
6670.7170859787
 21
5349.5226778974
 31
0.0
  0
LINE
  5
2B0
330
1F
100
AcDbEntity
  8
0
  6
Continuous
 62
     7
370
    25
100
AcDbLine
 10
6567.7170859787
 20
5077.876231288
 30
0.0
 11
6670.7170859787
 21
5077.876231288
 31
0.0
  0
LINE
  5
2B1
330
1F
100
AcDbEntity
  8
0
  6
Continuous
 62
     7
370
    25
100
AcDbLine
 10
6567.7170859787
 20
5351.1994545928
 30
0.0
 11
6670.7170859787
 21
5351.1994545928
 31
0.0
  0
LINE
  5
2B2
330
1F
100
AcDbEntity
  8
0
  6
Continuous
 62
     7
370
    25
100
AcDbLine
 10
6670.7170859787
 20
5351.1994545928
 30
0.0
 11
6670.7170859787
 21
5350.1994545928
 31
0.0
  0
ELLIPSE
  5
2B3
330
1F
100
AcDbEntity
  8
0
  6
Continuous
 62
     7
370
    25
100
AcDbEllipse
 10
6670.7170859787
 20
5348.6994545928
 30
0.0
 11
2.5
 21
0.0
 31
0.0
210
0.0
220
0.0
230
1.0
 40
0.6
 41
0.0
 42
1.570796326794897
  0
ELLIPSE
  5
2B4
330
1F
100
AcDbEntity
  8
0
  6
Continuous
 62
     7
370
    25
100
AcDbEllipse
 10
6670.7170859787
 20
5348.6994545927
 30
0.0
 11
2.5
 21
0.0
 31
0.0
210
0.0
220
0.0
230
1.0
 40
0.3292893219
 41
0.0
 42
1.570796326794897
  0
ARC
  5
2B5
330
1F
100
AcDbEntity
  8
0
  6
Continuous
 62
     7
370
    25
100
AcDbCircle
 10
6670.7170859787
 20
5348.6994545928
 30
0.0
 40
2.5
100
AcDbArc
 50
0.0
 51
90.0
  0
LINE
  5
2B6
330
1F
100
AcDbEntity
  8
0
  6
Continuous
 62
     7
370
    25
100
AcDbLine
 10
6673.2170859787
 20
5078.6994545927
 30
0.0
 11
6673.2170859787
 21
5348.6994545928
 31
0.0
  0
ELLIPSE
  5
2B7
330
1F
100
AcDbEntity
  8
0
  6
Continuous
 62
     7
370
    25
100
AcDbEllipse
 10
6670.7170859787
 20
5078.6994545927
 30
0.0
 11
2.5
 21
0.0
 31
0.0
210
0.0
220
0.0
230
1.0
 40
0.3292893219
 41
4.712388980384694
 42
6.283185307179586
  0
LINE
  5
2B8
330
1F
100
AcDbEntity
  8
0
  6
Continuous
 62
     7
370
    25
100
AcDbLine
 10
6567.7170859787
 20
5077.876231288
 30
0.0
 11
6567.7170859787
 21
5077.1994545927
 31
0.0
  0
ELLIPSE
  5
2B9
330
1F
100
AcDbEntity
  8
0
  6
Continuous
 62
     7
370
    25
100
AcDbEllipse
 10
6567.7170859787
 20
5078.6994545927
 30
0.0
 11
2.499999999999091
 21
0.0
 31
0.0
210
0.0
220
0.0
230
1.0
 40
0.6
 41
3.141592653589793
 42
4.712388980384699
  0
LINE
  5
2BA
330
1F
100
AcDbEntity
  8
0
  6
Continuous
 62
     7
370
    25
100
AcDbLine
 10
6565.2170859787
 20
5078.876231288
 30
0.0
 11
6565.2170859787
 21
5078.6994545927
 31
0.0
  0
LINE
  5
2BB
330
1F
100
AcDbEntity
  8
0
  6
Continuous
 62
     7
370
    25
100
AcDbLine
 10
6670.7170859787
 20
5077.876231288
 30
0.0
 11
6670.7170859787
 21
5077.1994545927
 31
0.0
  0
LINE
  5
2BC
330
1F
100
AcDbEntity
  8
0
  6
Continuous
 62
     7
370
    25
100
AcDbLine
 10
6567.7170859787
 20
5077.1994545927
 30
0.0
 11
6670.7170859787
 21
5077.1994545927
 31
0.0
  0
LINE
  5
2BD
330
1F
100
AcDbEntity
  8
0
  6
Continuous
 62
     7
370
    25
100
AcDbLine
 10
6670.7170859787
 20
5077.1994545927
 30
0.0
 11
6670.7170859787
 21
5076.1994545927
 31
0.0
  0
LINE
  5
2BE
330
1F
100
AcDbEntity
  8
0
  6
Continuous
 62
     7
370
    25
100
AcDbLine
 10
6670.7170859787
 20
5076.1994545927
 30
0.0
 11
6567.7170859787
 21
5076.1994545927
 31
0.0
  0
LINE
  5
2BF
330
1F
100
AcDbEntity
  8
0
  6
Continuous
 62
     7
370
    25
100
AcDbLine
 10
6567.7170859787
 20
5077.1994545927
 30
0.0
 11
6567.7170859787
 21
5076.1994545927
 31
0.0
  0
ARC
  5
2C0
330
1F
100
AcDbEntity
  8
0
  6
Continuous
 62
     7
370
    25
100
AcDbCircle
 10
6567.7170859787
 20
5078.6994545927
 30
0.0
 40
2.500000000000909
100
AcDbArc
 50
180.0
 51
270.0
  0
ELLIPSE
  5
2C1
330
1F
100
AcDbEntity
  8
0
  6
Continuous
 62
     7
370
    25
100
AcDbEllipse
 10
6670.7170859787
 20
5078.6994545927
 30
0.0
 11
2.5
 21
0.0
 31
0.0
210
0.0
220
0.0
230
1.0
 40
0.6
 41
4.712388980384699
 42
6.283185307179586
  0
ARC
  5
2C2
330
1F
100
AcDbEntity
  8
0
  6
Continuous
 62
     7
370
    25
100
AcDbCircle
 10
6670.7170859787
 20
5078.6994545927
 30
0.0
 40
2.5
100
AcDbArc
 50
270.0
 51
0.0000000007
  0
LINE
  5
2C3
330
1F
100
AcDbEntity
  8
0
  6
Continuous
 62
     8
370
    25
100
AcDbLine
 10
6676.3170859787
 20
5283.6994545928
 30
0.0
 11
6676.3170859787
 21
5288.6994545928
 31
0.0
  0
LINE
  5
2C4
330
1F
100
AcDbEntity
  8
0
  6
Continuous
 62
     8
370
    25
100
AcDbLine
 10
6676.3170859787
 20
5148.6994545928
 30
0.0
 11
6676.3170859787
 21
5153.6994545928
 31
0.0
  0
LINE
  5
2C5
330
1F
100
AcDbEntity
  8
0
  6
Continuous
 62
     8
370
    25
100
AcDbLine
 10
6676.3170859787
 20
5253.6994545928
 30
0.0
 11
6676.3170859787
 21
5258.6994545928
 31
0.0
  0
LINE
  5
2C6
330
1F
100
AcDbEntity
  8
0
  6
Continuous
 62
     8
370
    25
100
AcDbLine
 10
6676.2670859787
 20
5271.1994545928
 30
0.0
 11
6676.2670859787
 21
5283.6994545928
 31
0.0
  0
LINE
  5
2C7
330
1F
100
AcDbEntity
  8
0
  6
Continuous
 62
     8
370
    25
100
AcDbLine
 10
6676.2670859787
 20
5288.6994545928
 30
0.0
 11
6676.2670859787
 21
5313.4494545928
 31
0.0
  0
LINE
  5
2C8
330
1F
100
AcDbEntity
  8
0
  6
Continuous
 62
     8
370
    25
100
AcDbLine
 10
6676.2670859787
 20
5228.9494545928
 30
0.0
 11
6676.2670859787
 21
5253.6994545928
 31
0.0
  0
LINE
  5
2C9
330
1F
100
AcDbEntity
  8
0
  6
Continuous
 62
     8
370
    25
100
AcDbLine
 10
6676.2670859787
 20
5258.6994545928
 30
0.0
 11
6676.2670859787
 21
5271.1994545928
 31
0.0
  0
LINE
  5
2CA
330
1F
100
AcDbEntity
  8
0
  6
Continuous
 62
     7
370
    25
100
AcDbLine
 10
6203.2603047146
 20
4771.63604125
 30
0.0
 11
6203.2603047146
 21
4771.58604125
 31
0.0
  0
LINE
  5
2CB
330
1F
100
AcDbEntity
  8
0
  6
Continuous
 62
     7
370
    25
100
AcDbLine
 10
6219.6603047146
 20
4771.58604125
 30
0.0
 11
6219.6603047146
 21
4771.63604125
 31
0.0
  0
LINE
  5
2CC
330
1F
100
AcDbEntity
  8
0
  6
Continuous
 62
     7
370
    25
100
AcDbLine
 10
6234.0187553361
 20
4768.63604125
 30
0.0
 11
6234.0187553361
 21
4768.53604125
 31
0.0
  0
LINE
  5
2CD
330
1F
100
AcDbEntity
  8
0
  6
Continuous
 62
     7
370
    25
100
AcDbLine
 10
6239.0187553361
 20
4768.53604125
 30
0.0
 11
6239.0187553361
 21
4768.63604125
 31
0.0
  0
ARC
  5
2CE
330
1F
100
AcDbEntity
  8
0
  6
Continuous
 62
     7
370
    25
100
AcDbCircle
 10
6236.5187553361
 20
4768.53604125
 30
0.0
 40
2.5
100
AcDbArc
 50
180.0
 51
270.0
  0
ARC
  5
2CF
330
1F
100
AcDbEntity
  8
0
  6
Continuous
 62
     7
370
    25
100
AcDbCircle
 10
6236.5187553361
 20
4768.53604125
 30
0.0
 40
2.5
100
AcDbArc
 50
270.0
 51
0.0
  0
LINE
  5
2D0
330
1F
100
AcDbEntity
  8
0
  6
Continuous
 62
     7
370
    25
100
AcDbLine
 10
6231.5187553361
 20
4771.63604125
 30
0.0
 11
6231.5187553361
 21
4770.63604125
 31
0.0
  0
LINE
  5
2D1
330
1F
100
AcDbEntity
  8
0
  6
Continuous
 62
     7
370
    25
100
AcDbLine
 10
6241.5187553361
 20
4770.63604125
 30
0.0
 11
6241.5187553361
 21
4771.63604125
 31
0.0
  0
LINE
  5
2D2
330
1F
100
AcDbEntity
  8
0
  6
Continuous
 62
     7
370
    25
100
AcDbLine
 10
6231.5187553361
 20
4770.63604125
 30
0.0
 11
6233.5187553361
 21
4768.63604125
 31
0.0
  0
LINE
  5
2D3
330
1F
100
AcDbEntity
  8
0
  6
Continuous
 62
     7
370
    25
100
AcDbLine
 10
6239.5187553361
 20
4768.63604125
 30
0.0
 11
6241.5187553361
 21
4770.63604125
 31
0.0
  0
LINE
  5
2D4
330
1F
100
AcDbEntity
  8
0
  6
Continuous
 62
     7
370
    25
100
AcDbLine
 10
6256.1687553361
 20
4771.63604125
 30
0.0
 11
6258.1687553361
 21
4769.63604125
 31
0.0
  0
LINE
  5
2D5
330
1F
100
AcDbEntity
  8
0
  6
Continuous
 62
     7
370
    25
100
AcDbLine
 10
6344.8687553361
 20
4769.63604125
 30
0.0
 11
6346.8687553361
 21
4771.63604125
 31
0.0
  0
LINE
  5
2D6
330
1F
100
AcDbEntity
  8
0
  6
Continuous
 62
     7
370
    25
100
AcDbLine
 10
6259.2687553361
 20
4769.63604125
 30
0.0
 11
6259.2687553361
 21
4768.58604125
 31
0.0
  0
LINE
  5
2D7
330
1F
100
AcDbEntity
  8
0
  6
Continuous
 62
     7
370
    25
100
AcDbLine
 10
6343.7687553361
 20
4768.58604125
 30
0.0
 11
6343.7687553361
 21
4769.63604125
 31
0.0
  0
ARC
  5
2D8
330
1F
100
AcDbEntity
  8
0
  6
Continuous
 62
     7
370
    25
100
AcDbCircle
 10
6264.1020886695
 20
4768.58604125
 30
0.0
 40
4.833333333333124
100
AcDbArc
 50
180.0
 51
226.3971810273
  0
ARC
  5
2D9
330
1F
100
AcDbEntity
  8
0
  6
Continuous
 62
     7
370
    25
100
AcDbCircle
 10
6338.9354220028
 20
4768.58604125
 30
0.0
 40
4.833333333333124
100
AcDbArc
 50
313.6028189727
 51
0.0
  0
LINE
  5
2DA
330
1F
100
AcDbEntity
  8
0
  6
Continuous
 62
     7
370
    25
100
AcDbLine
 10
6224.0561029091
 20
4771.63604125
 30
0.0
 11
6224.0561029091
 21
4771.58604125
 31
0.0
  0
LINE
  5
2DB
330
1F
100
AcDbEntity
  8
0
  6
Continuous
 62
     7
370
    25
100
AcDbLine
 10
6225.4538194452
 20
4771.63604125
 30
0.0
 11
6225.4538194452
 21
4771.58604125
 31
0.0
  0
LINE
  5
2DC
330
1F
100
AcDbEntity
  8
0
  6
Continuous
 62
     7
370
    25
100
AcDbLine
 10
6198.852279841
 20
4771.63604125
 30
0.0
 11
6198.852279841
 21
4771.58604125
 31
0.0
  0
LINE
  5
2DD
330
1F
100
AcDbEntity
  8
0
  6
Continuous
 62
     7
370
    25
100
AcDbLine
 10
6224.0561029091
 20
4771.58604125
 30
0.0
 11
6220.1035084581
 21
4771.58604125
 31
0.0
  0
LINE
  5
2DE
330
1F
100
AcDbEntity
  8
0
  6
Continuous
 62
     7
370
    25
100
AcDbLine
 10
6203.2603047146
 20
4771.58604125
 30
0.0
 11
6198.852279841
 21
4771.58604125
 31
0.0
  0
LINE
  5
2DF
330
1F
100
AcDbEntity
  8
0
  6
Continuous
 62
     7
370
    25
100
AcDbLine
 10
6197.4538194452
 20
4771.63604125
 30
0.0
 11
6197.4538194452
 21
4771.58604125
 31
0.0
  0
LINE
  5
2E0
330
1F
100
AcDbEntity
  8
0
  6
Continuous
 62
     7
370
    25
100
AcDbLine
 10
6251.4797832183
 20
4771.56604125
 30
0.0
 11
6251.4797832183
 21
4771.63604125
 31
0.0
  0
LINE
  5
2E1
330
1F
100
AcDbEntity
  8
0
  6
Continuous
 62
     7
370
    25
100
AcDbLine
 10
6251.4797832183
 20
4771.56604125
 30
0.0
 11
6246.5187553361
 21
4771.56604125
 31
0.0
  0
LINE
  5
2E2
330
1F
100
AcDbEntity
  8
0
  6
Continuous
 62
     7
370
    25
100
AcDbLine
 10
6246.5187553361
 20
4771.56604125
 30
0.0
 11
6246.5187553361
 21
4771.63604125
 31
0.0
  0
LINE
  5
2E3
330
1F
100
AcDbEntity
  8
0
  6
Continuous
 62
     7
370
    25
100
AcDbLine
 10
6219.6603047146
 20
4771.58604125
 30
0.0
 11
6203.2603047146
 21
4771.58604125
 31
0.0
  0
LINE
  5
2E4
330
1F
100
AcDbEntity
  8
0
  6
Continuous
 62
     7
370
    25
100
AcDbLine
 10
6220.1035084581
 20
4771.58604125
 30
0.0
 11
6220.1035084581
 21
4771.63604125
 31
0.0
  0
LINE
  5
2E5
330
1F
100
AcDbEntity
  8
0
  6
Continuous
 62
     7
370
    25
100
AcDbLine
 10
6220.1035084581
 20
4771.58604125
 30
0.0
 11
6219.6603047146
 21
4771.58604125
 31
0.0
  0
LINE
  5
2E6
330
1F
100
AcDbEntity
  8
0
  6
Continuous
 62
     7
370
    25
100
AcDbLine
 10
6236.5187553361
 20
4770.63604125
 30
0.0
 11
6241.5187553361
 21
4770.63604125
 31
0.0
  0
LINE
  5
2E7
330
1F
100
AcDbEntity
  8
0
  6
Continuous
 62
     7
370
    25
100
AcDbLine
 10
6231.5187553361
 20
4770.63604125
 30
0.0
 11
6236.5187553361
 21
4770.63604125
 31
0.0
  0
LINE
  5
2E8
330
1F
100
AcDbEntity
  8
0
  6
Continuous
 62
     7
370
    25
100
AcDbLine
 10
6236.5187553361
 20
4768.63604125
 30
0.0
 11
6239.5187553361
 21
4768.63604125
 31
0.0
  0
LINE
  5
2E9
330
1F
100
AcDbEntity
  8
0
  6
Continuous
 62
     7
370
    25
100
AcDbLine
 10
6233.5187553361
 20
4768.63604125
 30
0.0
 11
6236.5187553361
 21
4768.63604125
 31
0.0
  0
LINE
  5
2EA
330
1F
100
AcDbEntity
  8
0
  6
Continuous
 62
     7
370
    25
100
AcDbLine
 10
6258.1687553361
 20
4769.63604125
 30
0.0
 11
6344.8687553361
 21
4769.63604125
 31
0.0
  0
LINE
  5
2EB
330
1F
100
AcDbEntity
  8
0
  6
Continuous
 62
     7
370
    25
100
AcDbLine
 10
6260.7687553361
 20
4765.08604125
 30
0.0
 11
6342.2687553361
 21
4765.08604125
 31
0.0
  0
LINE
  5
2EC
330
1F
100
AcDbEntity
  8
0
  6
Continuous
 62
     7
370
    25
100
AcDbLine
 10
6366.5187553361
 20
4877.13604125
 30
0.0
 11
6365.5187553361
 21
4877.13604125
 31
0.0
  0
ELLIPSE
  5
2ED
330
1F
100
AcDbEntity
  8
0
  6
Continuous
 62
     7
370
    25
100
AcDbEllipse
 10
6364.0187553361
 20
4877.13604125
 30
0.0
 11
0.0
 21
2.5
 31
0.0
210
0.0
220
0.0
230
1.0
 40
0.6
 41
4.712388980384699
 42
6.283185307179586
  0
ARC
  5
2EE
330
1F
100
AcDbEntity
  8
0
  6
Continuous
 62
     7
370
    25
100
AcDbCircle
 10
6364.0187553361
 20
4877.13604125
 30
0.0
 40
2.500000000000909
100
AcDbArc
 50
0.0
 51
90.0
  0
ELLIPSE
  5
2EF
330
1F
100
AcDbEntity
  8
0
  6
Continuous
 62
     7
370
    25
100
AcDbEllipse
 10
6363.8419786409
 20
4877.13604125
 30
0.0
 11
0.0
 21
2.5
 31
0.0
210
0.0
220
0.0
230
1.0
 40
0.4
 41
4.712388980384695
 42
6.283185307179586
  0
LINE
  5
2F0
330
1F
100
AcDbEntity
  8
0
  6
Continuous
 62
     7
370
    25
100
AcDbLine
 10
6363.8419786409
 20
4879.63604125
 30
0.0
 11
6364.0187553361
 21
4879.63604125
 31
0.0
  0
LINE
  5
2F1
330
1F
100
AcDbEntity
  8
0
  6
Continuous
 62
     7
370
    25
100
AcDbLine
 10
6364.8419786409
 20
4877.13604125
 30
0.0
 11
6365.5187553361
 21
4877.13604125
 31
0.0
  0
LINE
  5
2F2
330
1F
100
AcDbEntity
  8
0
  6
Continuous
 62
     7
370
    25
100
AcDbLine
 10
6366.5187553361
 20
4877.13604125
 30
0.0
 11
6366.5187553361
 21
4774.13604125
 31
0.0
  0
LINE
  5
2F3
330
1F
100
AcDbEntity
  8
0
  6
Continuous
 62
     7
370
    25
100
AcDbLine
 10
6366.5187553361
 20
4774.13604125
 30
0.0
 11
6365.5187553361
 21
4774.13604125
 31
0.0
  0
LINE
  5
2F4
330
1F
100
AcDbEntity
  8
0
  6
Continuous
 62
     7
370
    25
100
AcDbLine
 10
6365.5187553361
 20
4774.13604125
 30
0.0
 11
6365.5187553361
 21
4877.13604125
 31
0.0
  0
LINE
  5
2F5
330
1F
100
AcDbEntity
  8
0
  6
Continuous
 62
     7
370
    25
100
AcDbLine
 10
6364.8419786409
 20
4774.13604125
 30
0.0
 11
6364.8419786409
 21
4877.13604125
 31
0.0
  0
LINE
  5
2F6
330
1F
100
AcDbEntity
  8
0
  6
Continuous
 62
     7
370
    25
100
AcDbLine
 10
6364.8419786409
 20
4774.13604125
 30
0.0
 11
6365.5187553361
 21
4774.13604125
 31
0.0
  0
LINE
  5
2F7
330
1F
100
AcDbEntity
  8
0
  6
Continuous
 62
     7
370
    25
100
AcDbLine
 10
6183.1955320314
 20
4877.13604125
 30
0.0
 11
6364.8419786409
 21
4877.13604125
 31
0.0
  0
ELLIPSE
  5
2F8
330
1F
100
AcDbEntity
  8
0
  6
Continuous
 62
     7
370
    25
100
AcDbEllipse
 10
6184.1955320314
 20
4877.13604125
 30
0.0
 11
0.0
 21
2.5
 31
0.0
210
0.0
220
0.0
230
1.0
 40
0.4
 41
0.0
 42
1.570796326794897
  0
LINE
  5
2F9
330
1F
100
AcDbEntity
  8
0
  6
Continuous
 62
     7
370
    25
100
AcDbLine
 10
6184.1955320314
 20
4879.63604125
 30
0.0
 11
6363.8419786409
 21
4879.63604125
 31
0.0
  0
LINE
  5
2FA
330
1F
100
AcDbEntity
  8
0
  6
Continuous
 62
     7
370
    25
100
AcDbLine
 10
6183.1955320314
 20
4774.13604125
 30
0.0
 11
6364.8419786409
 21
4774.13604125
 31
0.0
  0
LINE
  5
2FB
330
1F
100
AcDbEntity
  8
0
  6
Continuous
 62
     7
370
    25
100
AcDbLine
 10
6183.1955320314
 20
4877.13604125
 30
0.0
 11
6183.1955320314
 21
4774.13604125
 31
0.0
  0
ARC
  5
2FC
330
1F
100
AcDbEntity
  8
0
  6
Continuous
 62
     7
370
    25
100
AcDbCircle
 10
6364.0187553361
 20
4774.13604125
 30
0.0
 40
2.500000000000909
100
AcDbArc
 50
270.0000000004
 51
0.0
  0
ELLIPSE
  5
2FD
330
1F
100
AcDbEntity
  8
0
  6
Continuous
 62
     7
370
    25
100
AcDbEllipse
 10
6364.0187553361
 20
4774.13604125
 30
0.0
 11
0.0
 21
2.500000000000909
 31
0.0
210
0.0
220
0.0
230
1.0
 40
0.6
 41
3.141592653602549
 42
4.712388980384699
  0
ELLIPSE
  5
2FE
330
1F
100
AcDbEntity
  8
0
  6
Continuous
 62
     7
370
    25
100
AcDbEllipse
 10
6364.0187553361
 20
4774.13604125
 30
0.0
 11
0.0
 21
2.500000000000909
 31
0.0
210
0.0
220
0.0
230
1.0
 40
0.3292893219
 41
3.141592653589793
 42
4.712388980384694
  0
LINE
  5
2FF
330
1F
100
AcDbEntity
  8
0
  6
Continuous
 62
     7
370
    25
100
AcDbLine
 10
6184.0187553361
 20
4771.63604125
 30
0.0
 11
6364.0187553361
 21
4771.63604125
 31
0.0
  0
ELLIPSE
  5
300
330
1F
100
AcDbEntity
  8
0
  6
Continuous
 62
     7
370
    25
100
AcDbEllipse
 10
6184.0187553361
 20
4774.13604125
 30
0.0
 11
0.0
 21
2.500000000000909
 31
0.0
210
0.0
220
0.0
230
1.0
 40
0.3292893219
 41
1.570796326794897
 42
3.141592653589793
  0
LINE
  5
301
330
1F
100
AcDbEntity
  8
0
  6
Continuous
 62
     7
370
    25
100
AcDbLine
 10
6183.1955320314
 20
4877.13604125
 30
0.0
 11
6182.5187553361
 21
4877.13604125
 31
0.0
  0
ELLIPSE
  5
302
330
1F
100
AcDbEntity
  8
0
  6
Continuous
 62
     7
370
    25
100
AcDbEllipse
 10
6184.0187553361
 20
4877.13604125
 30
0.0
 11
0.0
 21
2.5
 31
0.0
210
0.0
220
0.0
230
1.0
 40
0.6
 41
0.0
 42
1.570796326794897
  0
LINE
  5
303
330
1F
100
AcDbEntity
  8
0
  6
Continuous
 62
     7
370
    25
100
AcDbLine
 10
6184.1955320314
 20
4879.63604125
 30
0.0
 11
6184.0187553361
 21
4879.63604125
 31
0.0
  0
LINE
  5
304
330
1F
100
AcDbEntity
  8
0
  6
Continuous
 62
     7
370
    25
100
AcDbLine
 10
6182.5187553361
 20
4877.13604125
 30
0.0
 11
6181.5187553361
 21
4877.13604125
 31
0.0
  0
ARC
  5
305
330
1F
100
AcDbEntity
  8
0
  6
Continuous
 62
     7
370
    25
100
AcDbCircle
 10
6184.0187553361
 20
4877.13604125
 30
0.0
 40
2.500000000000909
100
AcDbArc
 50
90.0
 51
180.0
  0
LINE
  5
306
330
1F
100
AcDbEntity
  8
0
  6
Continuous
 62
     7
370
    25
100
AcDbLine
 10
6183.1955320314
 20
4774.13604125
 30
0.0
 11
6182.5187553361
 21
4774.13604125
 31
0.0
  0
LINE
  5
307
330
1F
100
AcDbEntity
  8
0
  6
Continuous
 62
     7
370
    25
100
AcDbLine
 10
6182.5187553361
 20
4877.13604125
 30
0.0
 11
6182.5187553361
 21
4774.13604125
 31
0.0
  0
LINE
  5
308
330
1F
100
AcDbEntity
  8
0
  6
Continuous
 62
     7
370
    25
100
AcDbLine
 10
6182.5187553361
 20
4774.13604125
 30
0.0
 11
6181.5187553361
 21
4774.13604125
 31
0.0
  0
LINE
  5
309
330
1F
100
AcDbEntity
  8
0
  6
Continuous
 62
     7
370
    25
100
AcDbLine
 10
6181.5187553361
 20
4774.13604125
 30
0.0
 11
6181.5187553361
 21
4877.13604125
 31
0.0
  0
ELLIPSE
  5
30A
330
1F
100
AcDbEntity
  8
0
  6
Continuous
 62
     7
370
    25
100
AcDbEllipse
 10
6184.0187553361
 20
4774.13604125
 30
0.0
 11
0.0
 21
2.500000000000909
 31
0.0
210
0.0
220
0.0
230
1.0
 40
0.6
 41
1.570796326794897
 42
3.141592653609219
  0
ARC
  5
30B
330
1F
100
AcDbEntity
  8
0
  6
Continuous
 62
     7
370
    25
100
AcDbCircle
 10
6184.0187553361
 20
4774.13604125
 30
0.0
 40
2.500000000000909
100
AcDbArc
 50
180.0
 51
270.0000000007
  0
LINE
  5
30C
330
1F
100
AcDbEntity
  8
0
  6
Continuous
 62
     8
370
    25
100
AcDbLine
 10
6236.5187553361
 20
4768.53604125
 30
0.0
 11
6239.0187553361
 21
4768.53604125
 31
0.0
  0
LINE
  5
30D
330
1F
100
AcDbEntity
  8
0
  6
Continuous
 62
     8
370
    25
100
AcDbLine
 10
6234.0187553361
 20
4768.53604125
 30
0.0
 11
6236.5187553361
 21
4768.53604125
 31
0.0
  0
LINE
  5
30E
330
1F
100
AcDbEntity
  8
0
  6
Continuous
 62
     8
370
    25
100
AcDbLine
 10
6259.2687553361
 20
4768.58604125
 30
0.0
 11
6343.7687553361
 21
4768.58604125
 31
0.0
  0
ENDSEC
  0
SECTION
  2
OBJECTS
  0
DICTIONARY
  5
C
330
0
100
AcDbDictionary
281
     1
  3
ACAD_GROUP
350
D
  3
ACAD_LAYOUT
350
1A
  3
ACAD_MLINESTYLE
350
17
  3
ACAD_PLOTSETTINGS
350
19
  3
ACAD_PLOTSTYLENAME
350
E
  3
ACAD_SCALELIST
350
47
  3
DWGPROPS
350
30F
  0
DICTIONARY
  5
D
102
{ACAD_REACTORS
330
C
102
}
330
C
100
AcDbDictionary
281
     1
  0
DICTIONARY
  5
1A
102
{ACAD_REACTORS
330
C
102
}
330
C
100
AcDbDictionary
281
     1
  3
Layout1
350
1E
  3
Layout2
350
26
  3
Model
350
22
  0
DICTIONARY
  5
17
102
{ACAD_REACTORS
330
C
102
}
330
C
100
AcDbDictionary
281
     1
  3
Standard
350
18
  0
DICTIONARY
  5
19
102
{ACAD_REACTORS
330
C
102
}
330
C
100
AcDbDictionary
281
     1
  0
ACDBDICTIONARYWDFLT
  5
E
102
{ACAD_REACTORS
330
C
102
}
330
C
100
AcDbDictionary
281
     1
  3
Normal
350
F
100
AcDbDictionaryWithDefault
340
F
  0
DICTIONARY
  5
47
102
{ACAD_REACTORS
330
C
102
}
330
C
100
AcDbDictionary
281
     1
  3
A0
350
48
  3
A1
350
49
  3
A2
350
4A
  3
A3
350
4B
  3
A4
350
4C
  3
A5
350
4D
  3
A6
350
4E
  3
A7
350
4F
  3
A8
350
50
  3
A9
350
51
  3
B0
350
52
  3
B1
350
53
  3
B2
350
54
  3
B3
350
55
  3
B4
350
56
  3
B5
350
57
  3
B6
350
58
  3
B7
350
59
  3
B8
350
5A
  3
B9
350
5B
  3
C0
350
5C
  3
C1
350
5D
  3
C2
350
5E
  3
C3
350
5F
  3
C4
350
60
  3
C5
350
61
  3
C6
350
62
  3
C7
350
63
  3
C8
350
64
  3
C9
350
65
  3
D0
350
66
  3
D1
350
67
  3
D2
350
68
  0
XRECORD
  5
30F
102
{ACAD_REACTORS
330
C
102
}
330
C
100
AcDbXrecord
280
     1
  1
DWGPROPS COOKIE
  2

  3

  4

  6

  7

  8
radek.stransky
  9

300
=
301
=
302
=
303
=
304
=
305
=
306
=
307
=
308
=
309
=
 40
0.0
 41
2460339.272630197
 42
2460339.272630984
  1

 90
        0
  0
LAYOUT
  5
1E
102
{ACAD_REACTORS
330
1A
102
}
330
1A
100
AcDbPlotSettings
  1

  2
none_device
  4

  6

 40
0.0
 41
0.0
 42
0.0
 43
0.0
 44
0.0
 45
0.0
 46
0.0
 47
0.0
 48
0.0
 49
0.0
140
0.0
141
0.0
142
1.0
143
1.0
 70
   688
 72
     1
 73
     0
 74
     5
  7

 75
    16
147
1.0
148
0.0
149
0.0
100
AcDbLayout
  1
Layout1
 70
     1
 71
     1
 10
0.0
 20
0.0
 11
420.0
 21
297.0
 12
0.0
 22
0.0
 32
0.0
 14
1.0000000000E+20
 24
1.0000000000E+20
 34
1.0000000000E+20
 15
-1.0000000000E+20
 25
-1.0000000000E+20
 35
-1.0000000000E+20
146
0.0
 13
0.0
 23
0.0
 33
0.0
 16
1.0
 26
0.0
 36
0.0
 17
0.0
 27
1.0
 37
0.0
 76
     0
330
1B
  0
LAYOUT
  5
26
102
{ACAD_REACTORS
330
1A
102
}
330
1A
100
AcDbPlotSettings
  1

  2
none_device
  4

  6

 40
0.0
 41
0.0
 42
0.0
 43
0.0
 44
0.0
 45
0.0
 46
0.0
 47
0.0
 48
0.0
 49
0.0
140
0.0
141
0.0
142
1.0
143
1.0
 70
   688
 72
     1
 73
     0
 74
     5
  7

 75
    16
147
1.0
148
0.0
149
0.0
100
AcDbLayout
  1
Layout2
 70
     1
 71
     2
 10
0.0
 20
0.0
 11
0.0
 21
0.0
 12
0.0
 22
0.0
 32
0.0
 14
0.0
 24
0.0
 34
0.0
 15
0.0
 25
0.0
 35
0.0
146
0.0
 13
0.0
 23
0.0
 33
0.0
 16
1.0
 26
0.0
 36
0.0
 17
0.0
 27
1.0
 37
0.0
 76
     0
330
23
  0
LAYOUT
  5
22
102
{ACAD_REACTORS
330
1A
102
}
330
1A
100
AcDbPlotSettings
  1

  2
none_device
  4
Letter_(8.50_x_11.00_Inches)
  6

 40
6.35
 41
6.35
 42
6.35000508
 43
6.35000508
 44
215.9
 45
279.4
 46
0.0
 47
0.0
 48
0.0
 49
0.0
140
0.0
141
0.0
142
1.0
143
1.0
 70
  1712
 72
     1
 73
     0
 74
     0
  7

 75
     0
147
1.0
148
0.0
149
0.0
100
AcDbLayout
  1
Model
 70
     1
 71
     0
 10
0.0
 20
0.0
 11
20000.0
 21
10000.0
 12
0.0
 22
0.0
 32
0.0
 14
0.0
 24
0.0
 34
0.0
 15
20000.0
 25
10000.0
 35
0.0
146
0.0
 13
0.0
 23
0.0
 33
0.0
 16
1.0
 26
0.0
 36
0.0
 17
0.0
 27
1.0
 37
0.0
 76
     0
330
1F
331
29
  0
MLINESTYLE
  5
18
102
{ACAD_REACTORS
330
17
102
}
330
17
100
AcDbMlineStyle
  2
Standard
 70
     0
  3

 62
   256
 51
90.0
 52
90.0
 71
     2
 49
0.5
 62
   256
  6
BYLAYER
 49
-0.5
 62
   256
  6
BYLAYER
  0
ACDBPLACEHOLDER
  5
F
102
{ACAD_REACTORS
330
E
102
}
330
E
  0
SCALE
  5
48
102
{ACAD_REACTORS
330
47
102
}
330
47
100
AcDbScale
 70
     0
300
1:1
140
1.0
141
1.0
290
     1
  0
SCALE
  5
49
102
{ACAD_REACTORS
330
47
102
}
330
47
100
AcDbScale
 70
     0
300
1:2
140
1.0
141
2.0
290
     0
  0
SCALE
  5
4A
102
{ACAD_REACTORS
330
47
102
}
330
47
100
AcDbScale
 70
     0
300
1:4
140
1.0
141
4.0
290
     0
  0
SCALE
  5
4B
102
{ACAD_REACTORS
330
47
102
}
330
47
100
AcDbScale
 70
     0
300
1:5
140
1.0
141
5.0
290
     0
  0
SCALE
  5
4C
102
{ACAD_REACTORS
330
47
102
}
330
47
100
AcDbScale
 70
     0
300
1:8
140
1.0
141
8.0
290
     0
  0
SCALE
  5
4D
102
{ACAD_REACTORS
330
47
102
}
330
47
100
AcDbScale
 70
     0
300
1:10
140
1.0
141
10.0
290
     0
  0
SCALE
  5
4E
102
{ACAD_REACTORS
330
47
102
}
330
47
100
AcDbScale
 70
     0
300
1:16
140
1.0
141
16.0
290
     0
  0
SCALE
  5
4F
102
{ACAD_REACTORS
330
47
102
}
330
47
100
AcDbScale
 70
     0
300
1:20
140
1.0
141
20.0
290
     0
  0
SCALE
  5
50
102
{ACAD_REACTORS
330
47
102
}
330
47
100
AcDbScale
 70
     0
300
1:30
140
1.0
141
30.0
290
     0
  0
SCALE
  5
51
102
{ACAD_REACTORS
330
47
102
}
330
47
100
AcDbScale
 70
     0
300
1:40
140
1.0
141
40.0
290
     0
  0
SCALE
  5
52
102
{ACAD_REACTORS
330
47
102
}
330
47
100
AcDbScale
 70
     0
300
1:50
140
1.0
141
50.0
290
     0
  0
SCALE
  5
53
102
{ACAD_REACTORS
330
47
102
}
330
47
100
AcDbScale
 70
     0
300
1:100
140
1.0
141
100.0
290
     0
  0
SCALE
  5
54
102
{ACAD_REACTORS
330
47
102
}
330
47
100
AcDbScale
 70
     0
300
2:1
140
2.0
141
1.0
290
     0
  0
SCALE
  5
55
102
{ACAD_REACTORS
330
47
102
}
330
47
100
AcDbScale
 70
     0
300
4:1
140
4.0
141
1.0
290
     0
  0
SCALE
  5
56
102
{ACAD_REACTORS
330
47
102
}
330
47
100
AcDbScale
 70
     0
300
8:1
140
8.0
141
1.0
290
     0
  0
SCALE
  5
57
102
{ACAD_REACTORS
330
47
102
}
330
47
100
AcDbScale
 70
     0
300
10:1
140
10.0
141
1.0
290
     0
  0
SCALE
  5
58
102
{ACAD_REACTORS
330
47
102
}
330
47
100
AcDbScale
 70
     0
300
100:1
140
100.0
141
1.0
290
     0
  0
SCALE
  5
59
102
{ACAD_REACTORS
330
47
102
}
330
47
100
AcDbScale
 70
     0
300
1/128" = 1'-0"
140
0.0078125
141
12.0
290
     0
  0
SCALE
  5
5A
102
{ACAD_REACTORS
330
47
102
}
330
47
100
AcDbScale
 70
     0
300
1/64" = 1'-0"
140
0.015625
141
12.0
290
     0
  0
SCALE
  5
5B
102
{ACAD_REACTORS
330
47
102
}
330
47
100
AcDbScale
 70
     0
300
1/32" = 1'-0"
140
0.03125
141
12.0
290
     0
  0
SCALE
  5
5C
102
{ACAD_REACTORS
330
47
102
}
330
47
100
AcDbScale
 70
     0
300
1/16" = 1'-0"
140
0.0625
141
12.0
290
     0
  0
SCALE
  5
5D
102
{ACAD_REACTORS
330
47
102
}
330
47
100
AcDbScale
 70
     0
300
3/32" = 1'-0"
140
0.09375
141
12.0
290
     0
  0
SCALE
  5
5E
102
{ACAD_REACTORS
330
47
102
}
330
47
100
AcDbScale
 70
     0
300
1/8" = 1'-0"
140
0.125
141
12.0
290
     0
  0
SCALE
  5
5F
102
{ACAD_REACTORS
330
47
102
}
330
47
100
AcDbScale
 70
     0
300
3/16" = 1'-0"
140
0.1875
141
12.0
290
     0
  0
SCALE
  5
60
102
{ACAD_REACTORS
330
47
102
}
330
47
100
AcDbScale
 70
     0
300
1/4" = 1'-0"
140
0.25
141
12.0
290
     0
  0
SCALE
  5
61
102
{ACAD_REACTORS
330
47
102
}
330
47
100
AcDbScale
 70
     0
300
3/8" = 1'-0"
140
0.375
141
12.0
290
     0
  0
SCALE
  5
62
102
{ACAD_REACTORS
330
47
102
}
330
47
100
AcDbScale
 70
     0
300
1/2" = 1'-0"
140
0.5
141
12.0
290
     0
  0
SCALE
  5
63
102
{ACAD_REACTORS
330
47
102
}
330
47
100
AcDbScale
 70
     0
300
3/4" = 1'-0"
140
0.75
141
12.0
290
     0
  0
SCALE
  5
64
102
{ACAD_REACTORS
330
47
102
}
330
47
100
AcDbScale
 70
     0
300
1" = 1'-0"
140
1.0
141
12.0
290
     0
  0
SCALE
  5
65
102
{ACAD_REACTORS
330
47
102
}
330
47
100
AcDbScale
 70
     0
300
1-1/2" = 1'-0"
140
1.5
141
12.0
290
     0
  0
SCALE
  5
66
102
{ACAD_REACTORS
330
47
102
}
330
47
100
AcDbScale
 70
     0
300
3" = 1'-0"
140
3.0
141
12.0
290
     0
  0
SCALE
  5
67
102
{ACAD_REACTORS
330
47
102
}
330
47
100
AcDbScale
 70
     0
300
6" = 1'-0"
140
6.0
141
12.0
290
     0
  0
SCALE
  5
68
102
{ACAD_REACTORS
330
47
102
}
330
47
100
AcDbScale
 70
     0
300
1'-0" = 1'-0"
140
12.0
141
12.0
290
     0
  0
ENDSEC
  0
EOF
